Tablatura para Guitarra de Panda: Muñeca
Conexión · Inscripción
Letras y Acordes
Pantalla Completa
Imprimir
Versión Texto
Añadir Favorito
Otras Versiones

Mostrar Diagramas
Desfile Automático
Manipular Acordes
Formato del Texto


Muñeca(TAB)

Panda

calidad:
pnda0031
AUTOR: José Madero Vizcaino
ALBUM: Arroz Con Leche
Enviado por Edgar
Author/Artist: Panda
Title: Muñeca
Album: Arroz con Leche
Transcribed by: Edgar Aguirre
Email: edgar_aguirre_7@hotmail.com
Intro
----------------0-1-0---------------|
-1---3-1--1---3-------3-1---1h3-1-0-|
---0--------0-----------------------|   x2
------------------------------------|
-3----------------0-----------------|
----------3---------------1---------|
                                                                              
Guitarra ritmica
-----------------------------------|
-----------------------------------|
-----------------------------------|	x4
---5-5-5-5---------1-1-1-1---------|
---3-3-3-3-5-5-5-5-0-0-0-0-3-3-3-3-|
-----------3-3-3-3---------1-1-1-1-|
                                                                              
Guitarra 1
-----------7-8----------|
-5--6--8-----------8-6-5|
------------------------| 	x4
------------------------|
------------------------|
------------------------|
                                                                              
Guitarra 2
---------0-1-0------------|
-1-3-1-3-------3-1-1h3-1-0|
--------------------------|
--------------------------| 	x4
--------------------------|
--------------------------|
                                                                              
Cambio de tono. Min. 2:17
--------------------------------|
--------------------------------|
--------------------------------|
-7-7-7-7---------2-2-2-2--------|
-5-5-5-5-7-7-7-7-4-4-4-4-3-3-3-3|
---------5-5-5-5---------5-5-5-5|
                                                                              
Solo: 
------------------------------------------------------------------------------
-/7-10---7-5-----/7-5--/7-10---7-5---11-11-10-8--/7-10---7-5---11-11-/14------
-------9-----7-7-------------9-----7-------------------9-----7----------------
------------------------------------------------------------------------------
------------------------------------------------------------------------------
------------------------------------------------------------------------------
                                                                              

-------------------------------------------11-11-11-11\9-9-9------------------
-------13-14-------13-14-------13-14------------------------------------------
-12-10-------12-10-------12-10-------12-10------------------------------------
------------------------------------------------------------------------------
------------------------------------------------------------------------------
------------------------------------------------------------------------------
Este fichero es trabajo propio de su transcriptor y representa su interpretación personal de la canción. El material contenido en esta página es
para exclusivo uso privado, por lo que se prohibe su reproducción o retransmisión, así como su uso para fines comerciales.

© LaCuerda.net · Aviso Legal · Privacidad