Tablatura para Guitarra de Panda: Muñeca
Conexión · Inscripción
Letras y Acordes
Pantalla Completa
Imprimir
Versión Texto
Añadir Favorito
Otras Versiones

Mostrar Diagramas
Desfile Automático
Manipular Acordes
Formato del Texto


Muñeca(TAB)

Panda

calidad:
pnda0035
AUTOR: José Madero Vizcaino
ALBUM: Arroz Con Leche
Enviado por Luis
Les recomiendo que escuchen la canción y la tomen como guía.
En el sólo, si quieren pueden hacerlo con las tecnicas que
quieran, recuerden que es muy importante
darle el toque personal!
Disfrútenla!

Intro solo la guitarra acústica

E|-------------------------------------------|
B|-------2----------2--4--5--4--2--0---------|
G|--4---------4------------------------------|
D|-----4---4-----4---------------------------|
A|-------------------------------------------|
E|-------------------------------------------|


E|---------------------------------------------------|
B|--0h2--0------------2-----------2--4--5--4--2--0---|
G|----------3--4------------4------------------------|
D|-----------------4-----4-----4---------------------|
A|---------------------------------------------------|
E|---------------------------------------------------|

E|------------------|
B|-----0h2--0-----0-|
G|-------------3----|
D|------------------|
A|------------------|
E|------------------|




Ahora entran las guitarras 1 y 2:
De fondo se hace esta secuencia de acordes: B5,F#5,G#5,E5 x4
Guitarra 1:

E|---------------------------------------------------------|
B|-----2-----2-4-5-4-2-0--2-0------2----2-4-5-4-2-0--------|
G|--4-----4-------------------3-4----4---------------------|
D|---------------------------------------------------------|
A|---------------------------------------------------------|
E|---------------------------------------------------------|

E|------------------------------------|
B|-2-0--------2-----2-4-5-4-2-0--2-0--|
G|------3--4-----4--------------------|
D|------------------------------------|
A|------------------------------------|
E|------------------------------------|

E|------------------------------------|
B|---------2----2-4-5-4-2-0--2-0------|
G|----3-4----4-------------------3-4--|
D|------------------------------------|
A|------------------------------------|
E|------------------------------------|


Guitarra 2:


E|----0--2--6--7--2--0--------|
B|-4--------------------4-----|
G|----------------------------|
D|----------------------------|
A|----------------------------|
E|----------------------------|


B5 F#5 G#5 E5 B5 Todo lo que necesites solo yo lo puedo dar
F#5 G#5 E5 todo lo que tu quieras yo lo tengo
B5 F#5 G#5 E5 B5 Necesitas un abrigo entre mis brazos estara
F#5 G#5 E5 necesitas un camino yo lo pinto
B5 F#5 G#5 E5 Mi muñeca esta llorando
B5 F#5 G#5 E5 mi muñeca esta
B5 F#5 G#5 E5 Mi muñeca esta llorando
B5 F#5 G#5 E5 mi muñeca esta
B5 F#5 G#5 E5 B5 Mi muñeca esta llorando pero yo no se porque
F#5 G#5 E5 sera que no me quiere, no me quiere
B5 F#5 G#5 E5 B5 necesitas un amigo, aqui yo mero estare
F#5 G#5 E5 pero te pido que me mates, matame Mucho cuidado con el cambio de tono!
C#5 G#5 A#5 F#5 Mi muñeca esta llorando
C#5 G#5 A#5 F#5 mi muñeca esta
C#5 G#5 A#5 F#5 Mi muñeca esta llorando
C#5 G#5 A#5 F#5 mi muñeca esta CORTE! Y VIENE EL SOLO: E|---4------------------4---------5h6-6-4-----4----------| B|-6---4-6-4-----7-6--6---4-6-4-----------7-6---4-6-4----| G|-----------6-6----------------6---------------------6--| D|-------------------------------------------------------| A|-------------------------------------------------------| E|-------------------------------------------------------| E|-5h6-6-9-----8-9-----8-9-----8-9-----10h11-11-11-11/9-9-9-9--| B|---------7-6-----7-6-----7-6-----7-6-------------------------| G|-------------------------------------------------------------| D|-------------------------------------------------------------| A|-------------------------------------------------------------| E|-------------------------------------------------------------|
C#5 G#5 A#5 F#5 Mi muñeca esta llorando
C#5 G#5 A#5 F#5 mi muñeca esta
C#5 G#5 A#5 F#5 Mi muñeca esta llorando
C#5 G#5 A#5 F#5 mi muñeca esta
C#5 G#5 A#5 F#5 C#5 Sabes que fue? talvez porque?
G#5 A#5 F#5 C#5 ella lloro (NADIE LA HIZO LLORAR)
G#5 A#5 F#5 C#5 Yo la quiero; mas no quiero
G#5 A#5 F#5 C#5 G#5 verla feliz (NADIE LA HIZO LLORAR)
A#5 F#5 C#5 G#5 nadie la hizo llorar
A#5 F#5 C#5 G#5 nadie la hizo llorar
A#5 F#5 C#5 G#5 nadie la hizo llorar Acordes:
B5 F#5 e--x---------- e--x---------- b--x---------- b--x---------- g--4---------- g--x---------- d--4---------- d--4---------- a--2---------- a--4---------- e--x---------- e--2----------
G#5 E5 e--x---------- e--x---------- b--x---------- b--x---------- g--x---------- g--x---------- d--6---------- d--2---------- a--6---------- a--2---------- e--4---------- e--0----------
C#5 A#5 e--x---------- e--x---------- b--x---------- b--x---------- g--6---------- g--x---------- d--6---------- d--8---------- a--4---------- a--8---------- e--x---------- e--6----------
Este fichero es trabajo propio de su transcriptor y representa su interpretación personal de la canción. El material contenido en esta página es
para exclusivo uso privado, por lo que se prohibe su reproducción o retransmisión, así como su uso para fines comerciales.

© LaCuerda.net · Aviso Legal · Privacidad