Acordes de Guitarra » P »los Panchos » Amorcito corazon (Tab)

Amorcito corazon
los Panchos

Letras, Acordes y Tabs para Guitarra, Bajo y Ukulele

  •           F#
    Amorcito corazón 
                                            C#7
    yo tengo tentación de un beso
    
    que se prenda en el calor
                                              F#
    de nuestro gran amor, mi amor
    
    
    yo  quiero ser
                                       C#7
    un solo ser y estar contigo
    
    te quiero ver en el querer
                F#
    para soñar 
    
    
    en la dulce tentación
    
  • INTRO: LAm MI SI7 MI                          ORIGINAL FA# (CEJILLA 2)
    
    MI
    Amorcito corazón
                             SI7
    yo tengo tentación de un beso
    
    que se prenda en el calor
                              MI
    de nuestro gran amor, mi amor.
    
    
    Yo quiero ser
                           SI7
    un solo ser y estar contigo
    
    te quiero ver en el querer
           MI
    para soñar.
    
    
  • A# --10-8-10--8--10--8--10---7-8-9-10--8--10--8--10--8--7----5--7--5--7--
    F  ----------------------------------------------------------------------
    C# ----------------------------------------------------------------------
    G# ----------------------------------------------------------------------
    D# ----------------------------------------------------------------------
    A# ----------------------------------------------------------------------
    
    A# --5--7--5--7--5--7--5-----------------------5--7--8---8--8--8--5------
    F  -----------------------8----6--8--6--5--6-------------5--5--5--5------
    C# ------------------------------------------------------5--5--5--5------
    G# ----------------------------------------------------------------------
    D# ----------------------------------------------------------------------
    A# ----------------------------------------------------------------------
    
    Acontinuacion pongo el acompamiento de la cancion:
    
    A# -------------0--1-----------------------------------------
    F  ----0--1--3-----------------------------------------------
    C# --2-------------------------------------------------------
    G# ----------------------------------------------------------
    
  • +
    ¡Colabora con nosotros!
    Envíanos tu versión de esta canción

Letra de Amorcito corazon
Amorcito corazón
yo tengo tentación de un beso
que se prenda en el calor
de nuestro gran amor, mi amor
yo quiero ser
un solo ser y estar contigo
te quiero ver en el querer
para soñar
en la dulce tentación
de un beso mordelón quisiera
amorcito corazón
decirte mi pasión por ti
Compañeros en el bien y el mal
ni los años nos podran pesar
amorcito corazón
serás mi amor
*************************************************
Tablatura por Daniel Quintana
(vdqm@hotmail.com)
*************************************************
__
\
__
\
__
\




[Amorcito corazon chords][Amorcito corazon cifra]
© LaCuerda.net · aviso legal · privacidad · es · en · pt · contacto