Acordes de Guitarra » O »Octavia » Altar (Tab)

Altar
Octavia

  • Tablatura
       F7   G6 Aadd9  E5 F#5 G5 A5  F  G
    e|--0---0----0------------------1--3--|
    B|--1---3----0------------------1--3--|
    G|--2---4----6------------------2--4--|
    D|--3---5----7----2---4--3--7---3--5--|
    A|--3---5----7----2---4--3--7---3--5--|
    E|--0---0----5----0---2--2--5---1--3--|
    
    
    INTRO:
    
                   \
    F7   G6  Aadd9  |>*2
                   /
    
       F7     G6    F     G     A5    G5 A5 G5 A5 G5 A5  G5 A5 G5    A5    G5 A5 G5 A5 G5 A5  G5 A5
    e|--0--|--0--|--1--|--3--|------------------------------------|----------------------------------|
    B|--1--|--3--|--1--|--3--|------------------------------------|----------------------------------|
    G|--2--|--4--|--2--|--4--|------------------------------------|----------------------------------|
    D|--3--|--5--|--3--|--5--|------------------------------------|----------------------------------|
    
  • +
    ¡Colabora con nosotros!
    Envíanos tu versión de esta canción

Letra de Altar
\
/
VERSO:
Nunca fuimos tan sinceros
Y tan dañinos a la vez
Sacamos todo en nuestras bocas
No imagine que alguna vez
No llegaría este final Y ahora
INTERMEDIO:
Te quemare en nuestro altar
Todos los recuerdos
Dejare en las cenizas toda tempestad El humo nos liberara
Dejare en las cenizas toda tempestad
VERSO:
Siempre fuimos tan intensos
Nos falto serenidad
Amamos con ardor y odio
Pero el final nada quedo
De nosotros dos Y ahora
Te quemare en nuestro altar
Todos los recuerdos
Dejare en las cenizas toda tempestad El humo nos liberara
Te quemare en nuestro altar
Todos los recuerdos
Dejare en las cenizas toda tempestad El humo nos libera
Dejare en las cenizas toda tempestad El humo nos libera
Dejare en las cenizas toda tempestad
Te quemare en nuestro altar
ESPERO QUE SEA DE TU AGRADO
CUALQUIER DUDA, CONCEJO O COMENTARIO
POR FAVOR ESCRIBIR
A MI NUEVO CORREO: omctabs@hotmail.com



© LaCuerda.net · aviso legal · privacidad · contacto
DINAMICO