Acordes de Guitarra » N »Los Nocheros » Piedra y camino (Tab)

Piedra y camino
Los Nocheros

Letras, Acordes y Tabs para Guitarra, Bajo y Ukulele

  • E|-10-9-10------|---------1-5-3-1-0|-
    B|-10-9-10-9--6-|-------3-3-6-5-3-2|-
    G|---------9--7-|-----2------------|-
    D|--------------|-0-3--------------|-
    A|--------------|------------------|-
    E|--------------|------------------|-
    
    
    E|-------------------|-------------------10----13---|-
    B|-------------------|-10-11-10-9-10-11-------------|-
    G|-------------------|------------------10/14--14---|-
    D|-------------------|------------------------------|-
    A|-0~1~0---0-1-0-4-7-|------------------------------|-
    E|-------4----------|-------------------------------|-
    
    E|-1-1--1-1-3-5~4~5--------|-
    B|-3-3--3-3-5-6~5~6--8-6-5-|-
    G|-------------------9-7-6-|-
    D|-------------------------|-
    A|-------------------------|-
    
  • E|-10-9-10------|--------0-5-3-1-|-
    B|-10-9-10-9--6-|-------0--6-5-2-|-
    G|---------10-7-|------0---------|-
    D|--------------|-0-2/4----------|-
    
    E|---------------|-------------------10----13--|-
    B|---------------|-10-11-10-9~10-10------------|-
    G|---------------|------------------10/14-14---|-
    D|---------------|-----------------------------|-
    A|-0~1~0-0-4-5-7-|-----------------------------|-
    
    
    E|-1-1--1-3-5~6~5-4-5-------|-
    B|-3-3--3-5-6-----5-6-8-6-5-|-
    G|--------------------9-7-6-|-
    D|--------------------------|-
    A|--------------------------|-
    E|--------------------------|-
    
    
    
  • +
    ¡Colabora con nosotros!
    Envíanos tu versión de esta canción

Letra de Piedra y camino
Del cerro vengo bajando
camino y piedra
traigo enredada en el alma, viday
u na triste za
traigo enredada en el alma, viday
una tristeza.
Me acusas de no quererte
no digas eso
tal vez no comprendas nunca, viday
porque me alejo
tal vez no comprendas nunca, viday
porque me alejo.
Estribillo
Es mi destino
piedra y camino
y un sueño lejano y bello, viday
soy peregrino
de un sueño lejano y bello, viday
soy peregrino.
Repite intro.
Por mas que la dicha busco
vivo penando
y cuando debo quedarme, viday
me voy andando
y cuando debo quedarme, viday
me voy andando.
A veces soy como el río
llego cantando
y sin que nadie lo sepa , viday
me voy llorando
y sin que nadie lo sepa, viday
me voy llorando.
Estribillo
Dedicado a quienes penan en sus andansas de amor
bajo el manto de las noches de Salta.




[Piedra y camino chords][Piedra y camino cifra]
© LaCuerda.net · aviso legal · privacidad · es · en · pt · contacto
DINAMICO