Acordes de Guitarra » N »Los Nocheros » Guitarra de medianoche (Tab)

Guitarra de medianoche
Los Nocheros

Letras, Acordes y Tabs para Guitarra, Bajo y Ukulele

  • Gm   D7
    Sol, mar, 
        Cm      F    Bb
    guitarra de medianoche. 
    Gm       D7
      Yo  y  tú, 
                      Gm
    hermana de mi esperanza 
    
    2)
    Gm   D7
    Voy, voy; 
        Cm           Gm
    por algo soy caminante. 
    Gm F7 Eb D7
    can      tor,
                         Gm
    de un tiempo de madrugada. 
    
    3)
    
  • Gm7  D7
    Sol, mar, 
        Cm7    F7   Bbmaj7
    guitarra de medianoche. 
    Gm F7 Eb D7(b9)
      Yo  y  tú, 
                      Gm7
    hermana de mi esperanza 
    
    Voy, voy; 
    por algo soy caminante. 
    cantor, 
    de un tiempo de madrugada. 
    
    G7  Cm7   F7  Bbmaj7    (Bº7)
    Andaré en la huella, 
    Cm7        D7    Gm    G7
    siguiendo una estrella, 
    Cm7           
    que aunque esté muy alta, 
    
  • E||----------------------------------------------------|
    B||----------------------------------------------------|
    G||-------------------------------2--------------------|
    D||----------------------------------5--4--------------|
    A||-----------2--4--5-----4--2-4-----------5--4--2--4--|
    E||--3--5--6-------------------------------------------|
    
    
                                                           
    -----------------------10----------8--7--6--7---------|
    --------------------------------7--------------3/5--5-|
    --2--------8--7--6--7--------7--------7--6--7---------|
    -----5--4---------------------------------------------|
    ------------------------------------------------------|
    ------------------------------------------------------|
    
    
                                                                       
    ---------0--1--3--5--5/7--------7-----6-----5---4------3-2----------------2---3-||
    0--1--3------------------8------------------------------------------------1---3-||
    
  • +
    ¡Colabora con nosotros!
    Envíanos tu versión de esta canción

Letra de Guitarra de medianoche
Sol, mar,
guitarra de medianoche.
Yo y tú,
hermana de mi esperanza
2)
Voy, voy;
por algo soy caminante.
can tor,
de un tiempo de madrugada.
3)
(Andaré) Andaré en la huella,
siguiendo una estrella,
que aunque esté muy alta,
yo sé que un día la he de alcanzar.
que aunque esté muy alta,
yo sé que un día la he de alcanzar.
1)
Luz, luz,
ya va floreciendo el día.
Vendrá,
bañado en llanto de luna.
2)
Morir,
morir no se muere nunca.
Vivir,
es esa la ley del hombre.
3)...




[Guitarra de medianoche chords][Guitarra de medianoche cifra]
© LaCuerda.net · aviso legal · privacidad · es · en · pt · contacto