Acordes de Guitarra » N »No Te Va Gustar » No te quiero acá (Tab)

No te quiero acá
No Te Va Gustar

Letras, Acordes y Tabs para Guitarra, Bajo y Ukulele

  • Intro: E7
    
    e|----------------------------------------------------------------------------------------------------------|
    B|----------------------------------------------------------------------------------------------------------|
    G|----------------------------------------------------------------------------------------------------------|
    D|-------55-33-22-------55-33-22-------55-33-22-------55-33-22-------55-33-222222-55-33-22-------55-33-22---|
    A|-33333-------22222-------00000-------------------33333-----------------------------------00000------------|
    E|-------------------------------------11111----------------------------------------------------------------|
    
    
    
    F   G   F              E             Am
           Yo no te quiero, no te quiero acá
    F               E           Am           G
      disfrutá tal vez mañana no estés más
    
    C                             E                         Am                 F   G
      Quién sabe adónde, quién lo podrá saber adónde fuiste para quedar así
    C                      E                 Am                      F   G
      Yo no me explico cómo llegaste ahí,     si ese no era tu lugar
    
  • intro: C E Am F G
    
    1----------|---------|---------|---------|---------|---------|-------|
     ----------|---------|---------|---------|---------|---------|-------|
     ----------|---------|---------|---------|---------|---------|-------|
     ---5-3-2--|-5-3-2---|-5-3-2---|-5-3-2---|-5-3-2---|-5-3-2---|-5-3-2-|F G
     -3-------2|-------0-|-------2-|-------3-|-------2-|-------0-|-------|
    6----------|---------|---------|---------|---------|---------|-------|
    
    
    
    
    F           E            Am       F G
    Yo no te quiero,no te quiero acá
    F             E             Am       F G
    disfrutá tal vez mañana no estes más
    
    C                      E                        Am                 F G
    Quien sabe a donde que no podra saber a donde fuiste para quedar asi
    C                 E                Am                  F G
    
  • /1111233321-
    /-----------
    /-----------
    /-----------
    
    Yo no te quiero no te quiero aca...
    disfruta tal vez mañana no estes mas...
    /-------------------------------------------------
    /3(x14)-2(x14)-0-000000----------000000-----------x2
    /----------------------555-333-22------555-333-22-
    /-------------------------------------------------
    
    quien sabe a donde
    quien lo podra saber a donde fuiste para quedar asi
    yo no me explico como llegaste ahi
    si ese no era tu lugar
    les prometiste al pasar una mentira
    que creyeron sin protestar
    yo no te escucho qeu ahora quieras darme pena
    y te largues a llorar
    
    /------0(x14)-------1111233321-
    /3(x14)------0(x14)------------x4
    /------------------------------
    /------------------------------
    
    Yo no te quiero no te quiero aca...
    disfruta tal vez mañana no estes mas...
    /-------------------------------------------------
    /3(x14)-2(x14)-0-000000----------000000-----------x2
    /----------------------555-333-22------555-333-22-
    /--------------------------------------
  • +
    ¡Colabora con nosotros!
    Envíanos tu versión de esta canción

Letra de No te quiero acá
Yo no te quiero, no te quiero acá
disfrutá tal vez mañana no estés más
Quién sabe adónde, quién lo podrá saber adónde fuiste para quedar así
Yo no me explico cómo llegaste ahí, si ese no era tu lugar
Les prometiste al pasar una mentira que creyeron sin protestar
Yo no te escucho aunque ahora quieras darme pena y te largues a llorar
Yo no te quiero, no te quiero acá
disfrutá tal vez mañana no estés más
Te gustaría tener mi guitarra, no me interesa tener tu sillón, porque estás solo
C (Acá se toca tapado haciendo el Do)
Por unos pesos querés empezar una guerra y no importa contra quien
( Y mientas dice '...Si esa es tu casa andáte pero ya no vuelvas ...' hace este punteo)
POR FAVOR NO VUELVAS !!!
Yo no te quiero, no te quiero acá
disfrutá tal vez mañana no estés más
Te gustaría tener mi guitarra, no me interesa tener tu sillón, porque estás solo
Te gustaría tener mi guitarra, no me interesa tener tu sillón, porque estás solo, SOLO !!!
Te gustaría, no me interesa, porque estás solo, solo, solo !!!




[No te quiero acá chords][No te quiero acá cifra]
© LaCuerda.net · aviso legal · privacidad · es · en · pt · contacto
DINAMICO