Acordes de Guitarra » N »No Te Va Gustar » El Error (Tab)

El Error
No Te Va Gustar

Letras, Acordes y Tabs para Guitarra, Bajo y Ukulele

  • Intro: A# F Cm Gm F x2  A#
    
    Estrofa
    
    A#         D#           A#
    ¿Quien es usted impostor?
                 F             Gm
    se escucha en la madrugada.
             D#           A#
    Ella esperaba el amor,
    F               Gm
    cómodamente sentada.
    
                   D#        A#
    El la vio una sola vez,
             F           Gm
    y le quemo la mirada.
            D#              A#
    Solo un segundo basto,
    F                  Gm
    
  • Intro:  A#  F  Cm  Gm F    A#  Gm
    
                D#           A#
    ¿Quién es usted impostor?
                   F           Gm
    se escucha en la madrugada.
              D#          A#
    Ella esperaba el amor,
    F             Gm
    cómodamente sentada.
    
    Gm                D#      A#
       El la vio una sola vez,
            F            Gm
    y le quemo la mirada.
               D#          A#
    Solo un segundo basto,
    F                     Gm
    Para quedarle grabada.
    
    
  • Intro: A# F Cm Gm F x2  A#
    
    1ra parte
    
       A#         F
    e|-----------------
    B|-----------------
    G|----5-8-7-----5--
    D|--8-------8-5----
    A|-----------------
    E|-----------------
    
                Cm      Gm               F
    e|---------------|----------------|---------------|
    B|--18-16-15-13--|------11--------|----10---------|
    G|---------------|---------10-----|-------10s8----|
    D|---------------|--s12-------12--|--10--------8--|
    A|---------------|----------------|---------------|
    E|---------------|----------------|---------------|
    
    
  • Intro:
    
    G|---------------------------------------------|
    D|---------------------------------------------|
    A|-----5-6-8-88-------6-5----------------------|
    E|-6-6----------6-8-8-----8-3-1----------------|
    
    G|---------------------------------------------|
    D|---------------------------------------------|
    A|-----5-6-8-88-------6-5----------------------|
    E|-6-6----------6-8-8-----8-3-1-6--------------|
    
    Quien es usted impostor? ..
    
    G|---------------------------------------------|
    D|--------------5----------3-3---5-------------|
    A|-------5-66-----6------5-----5---------------|
    E|-3-6-8------6-----66-6-----------3-----------|
    
    G|---------------------------------------------|
    D|--------------5---------3-3---5--------------|
    A|-------5-66-----6-8---5-----5----------------|
    E|-6-8--------6-------6------------3-----------|
    
    Él la vio una sola vez,
    
    G|---------------------------------------------|
    D|------------5----------3-3---5---------------|
    A|-----5-66-----6------5-----5-----------------|
    E|
  • +
    ¡Colabora con nosotros!
    Envíanos tu versión de esta canción

Letra de El Error
Estrofa
¿Quien es usted impostor?
se escucha en la madrugada.
Ella esperaba el amor,
cómodamente sentada.
El la vio una sola vez,
y le quemo la mirada.
para quedarle grabada.
Los dos sintieron lo mismo,
los unía el mismo lazo.
Ella no puedo seguirlo,
ni siquiera vio sus pasos.
Bajada: Gm - F
Estribillo:
Nunca hubiera funcionado, quizás...
Como llegaste tan pronto, te vas.
Estrofa: (igual a las primeras)
Fue fugaz, fue pasajera,
su relación fue un error.
Como si se conocieran,
conocieron el temor.
Nunca lo volvió a ver,
de ella no se supo nada.
Tal vez, lo seguirá esperando,
cómodamente sentada.
Estribillo:
Nunca hubiera funcionado, quizás...
Como llegaste tan pronto, te vas.
Tan pronto, tan pronto, te vas...




[El Error chords][El Error cifra]
© LaCuerda.net · aviso legal · privacidad · es · en · pt · contacto