Guitar Chords » N »No Te Va Gustar » Cosa Linda (Tab)

Cosa Linda
No Te Va Gustar

Lyrics, Chords & Tabs for Guitar, Bass & Ukulele

  • Chords & Lyrics
    Bm                      G        F#                     Bm
    Cosas buenas tiene el hombre, y a veces no las sabe disfrutar,
    y se amarga por la voces, que le dicen que no puede progresar,
    y se siente lastimado, por lo poco que le importan los demás,
                     G    Em                     F# 
    y se siente defraudado, si no tiene a quien jusgar.
    
    Em    F#                Bm       Em      F#      Bm  
    Cosa linda me trajo la vida, que no necesito más,
    Em       F#             Bm          G               F#   
    no le importa si tengo plata o si no, y no deja de cantar.
    
    Quiere estar en al ventana, y le dice al que sea dejame bailar,
    que le preste la guitarra, y no sabe la alegría que me da.
    
    Cosa linda me trajo la vida, que no necesito más,
    no le importa si tengo plata o si no, y no deja de cantar.
    
    Quiere estar en al ventana, y le dice al que sea dejame bailar,
    que le preste la guitarra, y no sabe la alegría que me da.
    
  • Chords & Lyrics
    Bm G F# Bm
    Cosas buenas tiene el hombre, y a veces no las sabe disfrutar,
    y se amarga por la voces, que le dicen que no puede progresar,
    y se siente lastimado, por lo poco que le importan los demás,
    G Em F#
    y se siente defraudado, si no tiene a quien jusgar.
    
    Em F# Bm Em F# Bm
    Cosa linda me trajo la vida, que no necesito más,
    Em F# Bm G F#
    no le importa si tengo plata o si no, y no deja de cantar.
    
    Quiere estar en al ventana, y le dice al que sea dejame bailar,
    que le preste la guitarra, y no sabe la alegría que me da.
    
    Cosa linda me trajo la vida, que no necesito más,
    no le importa si tengo plata o si no, y no deja de cantar.
    
    Quiere estar en al ventana, y le dice al que sea dejame bailar,
    que le preste la guitarra, y no sabe la alegría que me da.
    
  • Guitar Tab
      Bm   G  F#  Em
    e|-2-|-3-|-2-|-0-|
    B|-3-|-3-|-2-|-0-|
    G|-4-|-4-|-3-|-0-|
    D|-4-|-5-|-4-|-2-|
    A|-2-|-5-|-4-|-2-|
    E|---|-3-|-2-|-0-|
    
    Intro
    
      Bm                    G                                             F#
    e|---7-10-9--7-10-9--7-----12-12-12--10-10-10--9-9-9---------------------|
    B|--7-------------------8-----------------------------12-12-12--11-11-11-|
    G|-7---------------------------------------------------------------------|
    D|-----------------------------------------------------------------------|
    A|-----------------------------------------------------------------------|
    E|-----------------------------------------------------------------------|
                      Bm          | Bm                G
    e|----------------------------|----------------------------|
    B|----------------------------|----------------------------|
    
  • Guitar Tab
           Bm(Sim)         G(SolM)        F#(FaM#)
    e|---2--2--2---2-|---3--3--3---3-|---2--2--2---2-|>
    B|---3--3--3---3-|---3--3--3---3-|---2--2--2---2-|>
    G|---4--4--4---4-|---4--4--4---4-|---3--3--3---3-|>
    D|---------------|---------------|---------------|>
    A|-2----2----2---|---------------|---------------|>
    E|---------------|-3----3----3---|-2----2----2---|>
            Em(Mim)
    >e|---0--0--0---0--
    >B|---0--0--0---0--
    >G|---0--0--0---0--
    >D|----------------
    >A|----------------
    >E|-0----0----0----
    
    ... y en el estribillo (2)) se tocan asi:
         Em       F#          Bm
    e|---0--0-|---2--2-|--2--2--2---2--|
    B|---0--0-|---2--2-|--3--3--3---3--|
    G|---0--0-|---3--3-|--4--4--4---4--|
    
  • +
    ¡Colabora con nosotros!
    Envíanos tu versión de esta canción

Cosa Linda Lyrics
Cosas buenas tiene el hombre, y a veces no las sabe disfrutar,
y se amarga por la voces, que le dicen que no puede progresar,
y se siente lastimado, por lo poco que le importan los demás,
y se siente defraudado, si no tiene a quien jusgar.
Cosa linda me trajo la vida, que no necesito más,
no le importa si tengo plata o si no, y no deja de cantar.
Quiere estar en al ventana, y le dice al que sea dejame bailar,
que le preste la guitarra, y no sabe la alegría que me da.
Cosa linda me trajo la vida, que no necesito más,
no le importa si tengo plata o si no, y no deja de cantar.
Quiere estar en al ventana, y le dice al que sea dejame bailar,
que le preste la guitarra, y no sabe la alegría que me da.
Cosa linda me trajo la vida, que no necesito más,
no le importa si tengo plata o si no, y no deja de cantar.
(Cosa linda) cosa linda metrajo la vida,
(y no necesito no) y no necesito más,
(ay, ay cosa linda)no le importa si tengo plata o si no,
(no le importa no) y no deja de cantar
(y no deja, no deja porque es cosa linda).
No le importa cosa linda, cosa linda me trajo la vida,
no le importa si tengo plata o si no, y no deja de cantar.

Tengo el punteo si lo quieren manden un mail a mi direccion y se los envio



© LaCuerda.net · legal notice · privacy · contact us