Acordes de Guitarra » M »Música de VideoJuegos » Truco - Blyts (Tab)

Truco - Blyts
Música de VideoJuegos

Letras, Acordes y Tabs para Guitarra, Bajo y Ukulele

  • ---------------------------------------------------------
    
    Acá va el tema de la app Truco de Blyts, espero disfruten.
    
    Se toca con 2 o 3 guitarras, una para los acordes y la(s) otra(s) para
    el punteo.
    
    (es probable que los acordes se hayan corrido por problemas de la página
    por lo que usd deberán ajustarlos ahí)
    
       E
    
    e --------------------------------------------------------------------------
    B --------------------------------------------------------------------------
    G -----------------8-8s9----------------------------------------------------
    D ------------6-6h9---------------------------------------------------------
    A -------6-6h7--------------------------------------------------------------
    E --7-7h9-------------------------------------------------------------------
    
    
    
  • +
    ¡Colabora con nosotros!
    Envíanos tu versión de esta canción

Letra de Truco - Blyts
Acá va el tema de la app Truco de Blyts, espero disfruten.
Se toca con 2 o 3 guitarras, una para los acordes y la(s) otra(s) para
el punteo.
(es probable que los acordes se hayan corrido por problemas de la página
por lo que usd deberán ajustarlos ahí)
| Esto se |
|puede omitir|
E*: Al final termina con un Mi pero hace un juego con el quinto dedo en la
cuerda 2 traste 2, sería algo más o menos así:
e --0-0-0-0-0-0-2-0--
G --1-1-1-1-1-1-1-1--
A --2-2-2-2-2-2-2-2--
Espero les haya gustado y qué viva el Folclore!
Muchas gracias.




[Truco - Blyts chords][Truco - Blyts cifra]
© LaCuerda.net · aviso legal · privacidad · es · en · pt · contacto