Acordes de Guitarra » M »Música de VideoJuegos » Mario Bros (Tab)
  • Tablatura
    noté que las otras estan un poco dificiles
    asi que yo se las pongo mas facil
    
    --12-12-12----12---15---
    -----------13-----------
    ----------------------12
    ------------------------
    ------------------------
    ------------------------
    
    |-8-----5-7-6-5---0-3-5-1-3-0---------3-2-1----------------
    |---8-5-----------------------1-3-0---------4-5-----1---1-3
    |----------------0--------------------------------2---2----
    |-----------------------------------------------3----------
    |-----------------------------------3----------------------
    |----------------------------------------------------------
    
    |-3-2-1-----8-8-8---3-2-1-----------------------------------
    |-------4-5---------------4-5------1---1-3-4----------------
    |--------------------------------2---2-------7--------------
    |------------------------------3---------------10--5-5-2----
    |-----------------------------------------------------------
    |-----------------------------------------------------------
    
     ------------0-------------------0--------
  • Tablatura
    noté que las otras estan un poco dificiles
    asi que yo se las pongo mas facil
    
    --0-0-0---0-3-----------
    --------1---------------
    ----------------0-------
    ------------------------
    ------------------------
    ------------------------ x1
    
    |------------------------------0-3-5-1-3-0------------------|
    |-1-----------1-0---------------------------1-3-0-----------|
    |----0-----2-------2-------0--------------------------------|
    |-------2---------------------------------------------------|
    |-----------------------------------------------------------|
    |-----------------------------------------------------------| x2
    
    |-3-2-1--------------------3-2-1------8-8-8-----------------
    |--------4-5-----1---1-3---------4-5------------------------
    |------------1-2---2----------------------------------------
    |-----------------------------------------------------------
    |-----------------------------------------------------------
    |-----------------------------------------------------------
    
     -3-2-1-----------------
  • Tablatura
    noté que ya habia 3 transcripciones pero ke estan incompletas
    y otras estan mal esta es la cancion completa esta muy xida
    
    --12-12-12-----12--15--------
    ------------13---------------
    -------------------------12--
    -----------------------------
    -----------------------------
    -----------------------------
    
    |----------------------------------12--15-17--13-15--12-----------|
    |-13-----------------12----------------------------------13-15-12-|
    |------12--------14------15-14--12--------------------------------|
    |-----------14----------------------------------------------------|
    |-----------------------------------------------------------------|
    |-----------------------------------------------------------------| x2
    
    |-15-14-13-------------------------------15-14-13---------20--20-20-
    |----------16--17--------13-----13-15-------------16--17------------
    |------------------13-14-----14-------------------------------------
    |-------------------------------------------------------------------
    |------
  • Tablatura
    E---12--12--12-----12--15--------------------
    B---------------13---------------------------
    G-----------------------------12-------------
    D--------------------------------------------
    A--------------------------------------------
    E--------------------------------------------
    
    E---8---------5--7-6-5---------0--3-5--1-3-0------------
    B------8--5-------------------------------------1-3-0---
    G------------------------0------------------------------
    D-------------------------------------------------------
    A-------------------------------------------------------
    E------------------------------------------------------- x2
    
    A:
    
    E------3-2-1-----0----------------------3-2-1----0--8--8-8--
    B------------4----------1-----1-3-------------4-------------
    G---------------------2-----2-------------------------------
    D-------------------3---------------------------------------
    
  • Tab p/Bajo
    Intro         Parte I
    G|-----------|-------------------|------9-10-7-9-----------|
    D|---------5~|-5--2-----3--5-4-3-|---10---------10--7-9----|
    A|-55-5-55---|-------3-----------|--7------------------10--|
    E|-----------|-------------------|-------------------------|
    
    Parte II
    G|-------5-----555---|--------5---------|-------5-----555---|----1-3-5-------|
    D|----5-----3------3-|---2--5--------5p-|----5-----3------3-|-----------55---|
    A|-3-----------------|-3----------------|-3-----------------|-3------------3-|
    E|-------------------|------------------|-------------------|----------------|
    
    Parte III
    G|----------------|----------------|----------------|
    D|-------6-5------|-------6-5------|-------6-5------|
    A|----6-------3---|----6-------3---|----6-------3---|
    E|-4------------3-|-4------------3-|-4------------3-|
    
    Parte IV
    G|---------5-------5-5---|-------0-4-0-0-5-5-0-|---------5-------5-5---|
    D|----4-5-----3-3------3-|-0--3----------------|----4-5-----3-3------3-|
    A|-3---------------------
  • Armónica
    +5 +5 +5 +4 +5 +6 | +3
    
    +4 +3 +2
    "3 -3 '3 "3
    +3 +4 +5 +6 -6 -5 +6 +5 +4 -4 -3
    
    +4 +3 +2
    "3 -3 '3 "3
    +3 +4 +5 +6 -6 -5 +6 +5 +4 -4 -3
    
    +6 5ob -5 -4 +5
    +3 '3 +4 '3 +4 -4
    +6 5ob -5 -4 +5
    +7 +7 +7
    +6 5ob -5 -4 +5
    +3 '3 +4 '3 +4 -4
    4ob -4 +4
    
    +3 '3 +4 +4 +4 +4 -4 +5 +4 '3 +3
    +4 +4 +4 +4 -4 +5
    +3 '3 +4 +4 +4 +4 -4 +5 +4 '3 +3
    +5 +5 +5 +4 +5 +6
    
    +5 +4 +3 "3 -3 -5 -5 "3
    -3 -6 -6 -6 +6 -5 +5 +4 "3 +3
    +5 +4 +3 "3 -3 -5 -5 "3
    -3 -5 -5 -5 +5 -4 +4 +3 +2 +1
    
    +3 '3 +4 +4 +4 +4 -4 +5 +4 '3 +3
    +4 +4 +4 +4 -4 +5
    +3 '3 +4 +4 +4 +4 -4 +5 +4 '3 +3
    +5 +5 +5 +4 +5 +6
    
    Primera transcripción
  • +
    ¡Colabora con nosotros!
    Envíanos tu versión de esta canción

Letra de Mario Bros
se repite la A y despues la B y se continua con esta:



© LaCuerda.net · aviso legal · privacidad · contacto