Acordes de Guitarra » M »Música de VideoJuegos » Zelda - gerudo valley (Tab)

Zelda - gerudo valley
Música de VideoJuegos

Letras, Acordes y Tabs para Guitarra, Bajo y Ukulele

  •       C#7                  C#
    e|------------------5---4-5-7---9-----|
    b|---------------6--------------9-----|
    g|----------4-6-----------------10----|
    D|--------6---------------------------|
    A|------4-----------------------------|
    E|------------------------------------|
    
    Se repide este 'Círculo' varias veces
    
    F#m - D - E - C#7
    
    Y la melodía:
    
    F#m                 D                  E               C#7
    
    e|-----4-5-----4-5------4-5-----4-5--------4-------4-/---4-----|
    b|---7-------7--------7-------7--------5-7-----5-7---/-7---7-6-|
    g|-6-------6--------7-------7--------4-------4-------/---------|
    D|---------------------------------------------------/---------|
    
  • |-----------------------------7-9--------------|
    |--------------7--10-------9-------------------|
    |--------4--7-----------10---------------------|
    |-----6----------------------------------------|
    |--4-------------------------------------------|
    |----------------------------------------------|
    
    Aqui van a tapar todas las cuerdas y van a hacer arriba y abajo algo rapido
    
    |--X-------------------------------------------|
    |--X-------------------------------------------|
    |--X-------------------------------------------|
    |--X-------------------------------------------|
    |--X-------------------------------------------|
    |--X-------------------------------------------| x(9)
    
    Despues son los acordes que estos son con otra guitarra los cuales son
    FRMI Re(M) Mi(M) y DO#7 se repiten en toda la canción
    
    |----2-4--5----2-4-5----2-4-5---2-4-5---0-2-4--|
    
  • +
    ¡Colabora con nosotros!
    Envíanos tu versión de esta canción

Letra de Zelda - gerudo valley
Se repide este 'Círculo' varias veces
Y la melodía:
Se repite hasta las diagonales, con el siguiente final
Y luego:
Este es el final:
Disfrutenlo!!
'La luz oscura cierra la celestial quemazón diurna'




[Zelda - gerudo valley chords][Zelda - gerudo valley cifra]
© LaCuerda.net · aviso legal · privacidad · es · en · pt · contacto