Acordes de Guitarra » M »Música de VideoJuegos » Mario World intro (Tab)

Mario World intro
Música de VideoJuegos

Letras, Notas, Punteos, Tablaturas y Acordes de Guitarra (Tabs & Chords)

  • Tablatura
    e-------------------------------------------------------------------
    B---------------------------1---------------------------------------
    G--2--------------------------2-0-----2----------------------3-2-0--
    D------3-----0-3-3--0---3-3---------------3-----0-3-3--0---3-------3
    A----------3----------3-----------------------3----------3----------
    E------------------------------------------------------------------- x2
    
    e--------------------------------------------------------------
    B-----------------------------------------------------1--------
    G--2-----2-----1-----1---0----------2-----2-----1--------------
    D----3-----3-----3--------------------3-----3-----3------------
    A------3-----------3--------------------3-----------3----------
    E--------------------------------------------------------------
    
    e------------------------------
    B------------------------------
    G--2----------------0-2--------
    D------3-----0-3-3------3---0-3
    A----------3--------------3----
    E------------------------------
    
  • +
    ¡Colabora con nosotros!
    Envíanos tu versión de esta canción

Letra de Mario World intro
Y así sucesivamente
Cualquier duda estoy disponible... Adios XD XD XD



© LaCuerda.net · Aviso Legal · Privacidad