Acordes de Guitarra » M »Música de VideoJuegos » Chrono Trigger (Tab)

Chrono Trigger
Música de VideoJuegos

Letras, Acordes y Tabs para Guitarra, Bajo y Ukulele

  • e-----------------------------7~~~-8~~~~~~~-10~~-12~~-14~h15p14p107~-
    B-----------------------10~~~-----------------------------------------
    G------------------9~~~-----------------------------------------------
    D--------7~~~-9~~~----------------------------------------------------
    A---7~~~--------------------------------------------------------------
    E-7-------------------------------------------------------------------
    
     /-----  -   -   -  play twice  -   -   -  -----
    e|------------------------------7-7~------------|-------------------
    B|-----7-8---7---------------10------10-9-------|----7-8~~~~-10~~~~-
    G|---9---------7~~~~-------9--------------9~~~~-|--9----------------
    D|-7-------9----------7~-9----------------------|-------------------
    A|----------------------------------------------|-------------------
    E|----------------------------------------------|-------------------
    
    e--7~~~~-8-8~~-10-10~~p9p8p7~~~~~~~~~-------------------------------
    B----------------------------------------
  • +
    ¡Colabora con nosotros!
    Envíanos tu versión de esta canción






[Chrono Trigger chords][Chrono Trigger cifra]
© LaCuerda.net · aviso legal · privacidad · es · en · pt · contacto
DINAMICO