Acordes de Guitarra » M »Música de VideoJuegos » Beethoven Virus (Tab)

Beethoven Virus
Música de VideoJuegos

Letras, Acordes y Tabs para Guitarra, Bajo y Ukulele

  • Hola, a todos les habla Lucifer, esta en mi tercera tab que meto
    a la cuerda y en especial esta me costo mucho trabajo sacarla asi que
    me portare buena onda con ustedes y la dejare aqui...
    La saque de oido y vista la cancion asi que si tiene errores
    ustedes improvisen y traten de sacarlo bien, yo solo dejo aqui
    lo base, y ami parecer esta bien (bueno se escucha bien)
    ya cada quien tiene su opinion... dudas y comentarios ya saben
    a mi correo porfa... Califiquenla Saludos
    
    Me encanta esta rola...
    
    Intro
    E|----------------------------------------------------------|
    B|----------------------------------------------------------|
    G|----------------------------------------------------------|
    D|-4-----5-----7-----9-----10-----10-9-----7-----5-----2----|
    A|-2-0-0-3-0-0-5-0-0-7-0-0-8--0-0-8--7-0-0-5-0-0-3-0-0-4-0-0|
    E|----------------------------------------------------------|
    
    
    
    E|-------------------------------------------10-12-12-12-12-12v--|
    B|---10-12-13--15-12--13-10--10-----10-12-13-------
  • Simbologia:
    ~ - Dejar sonar (esto depende de los tiempos en la cancion)
    v - Vibrato
    () - esta n0ta suena muy poco tiempo
    b - bend jalar la cuerda
    Pues vale a la tablatura anterior
    le faltaban los solos asi q aqui los dejo
    mmm pues si se parece a la cancion solo si toman bien
    los tiempo ya q es algo complicado... si se llegan a atorar
    en la cancion pues ahi me avisan: freevolt_110v@hotmail.com
    y pues tambien corregi un0 q otro error sale
    jeje pobre de kien no califique con 10 eh!
    
    Intro
    00:00
    e|-------------------------------------------------------------|
    B|-------------------------------------------------------------|
    G|-------------------------------------------------------------|
    D|-4-----5-----7-----9-----10-----10----9-----7-----5-----2----|
    A|-2-0-0-3-0-0-5-0-0-7-0-0-8--0-0-8-0-0-7-0-0-5-0-0-3-0-0-4-0-0|
    E|-------------------------------------------------------------|
    
    00:03
    e|-------------------------------------------10-12-12-12-12-12v-|
    B|---10-12-13--15-12--13-10--10-----10-1
  • +
    ¡Colabora con nosotros!
    Envíanos tu versión de esta canción






[Beethoven Virus chords][Beethoven Virus cifra]
© LaCuerda.net · aviso legal · privacidad · es · en · pt · contacto