Acordes de Guitarra » M »Música de TV » Melcochita - el tic tac (Tab)

Melcochita - el tic tac
Música de TV

Letras, Acordes y Tabs para Guitarra, Bajo y Ukulele

  • Intro: Em - B
    e|-------7-6-7-6-7-7-8--7-7-5--
    B|-------8-7-8-7-8-8-10-8-8-7--
    G|-----8-----------------------
    D|---9-------------------------
    A|-9---------------------------
    E|-----------------------------
    
    e|-------5-3-2-8--7-7-8--7-5-3--|
    B|-----7-7-5-4-10-8-8-10-8-7-5--|
    G|---8--------------------------|
    D|-9----------------------------|
    A|------------------------------|
    E|------------------------------|
    
    Em                                 F#
    Mi corazón hace tic tac cuando me miras
              B7                        Em
    y si me vuelves a mirar mi alma suspira.
    Em                                 F#
    
  • +
    ¡Colabora con nosotros!
    Envíanos tu versión de esta canción

Letra de Melcochita - el tic tac
Mi corazón hace tic tac cuando me miras
y si me vuelves a mirar mi alma suspira.
Mi corazón hace tic tac cuando me miras
y si me vuelves a mirar mi alma suspira.
Cuando te pones a bailar tu cinturita va al compás
y en seguidita mi corazón hacer tic tac.
Cuando te pones a bailar tu cinturita va al compás
y en seguidita mi corazón hacer tic tac.
(Repetir)
Cosita buena (hace tic tac)
óyeme vamo' a gozar (hace tic tac)
oye qué bueno está! (hace tic tac)
pero mira mamacita que tú sabes que (hace tic tac)
tic tiriquitac tic tiriquitac (hace tic tac)
tiriquitac tiriquitac (hace tic tac)
oye mamita rica (hace tic tac)
Todo el resto de la canción es Em - B7.
º-| ¤ ¤ |-º
º-| LuïS |-º
º-| ¤ ¤ |-º
/
| |




[Melcochita - el tic tac chords][Melcochita - el tic tac cifra]
© LaCuerda.net · aviso legal · privacidad · es · en · pt · contacto
DINAMICO