Acordes de Guitarra » M »Música de TV » La ley del amor - sabes (Tab)

La ley del amor - sabes
Música de TV

  •     DO             SOL#            RE#           LA#
    6-------------/--4-----------/------------/-------------
    5-3-----------/-----3--------/------------/-1-----------
    4-------------/--------------/--1---------/---3---------
    3----0--------/--------3---1-/-----3------/-------3-----
    2-------3--1--/--------------/----------4-/-----1-------
    1-------------/--------------/--------1---/-------------
    
    6-------------/--4-----------/------------/-------------
    5-3-----------/-----3--------/------------/-------------
    4-------------/--------------/--1---------/------LA#----
    3----0--------/--------3---1-/----3-----1-/-------------
    2-------3--1--/--------------/-------1----/-------------
    1-------------/--------------/------------/-------------
    
    
    RE#                 SOL#
    sabes, no pido nada mas
                          RE#
    que estar entre tus brazos
    
  • +
    ¡Colabora con nosotros!
    Envíanos tu versión de esta canción

Letra de La ley del amor - sabes
sabes, no pido nada mas
que estar entre tus brazos
y huir de todo el mal
que a todo he renunciado
por estar junto a ti
sabes no dejo de pensar
que estoy enamorado
te quiero confesar
que soy solo un esclavo
que no sabe vivir, sin ti
cuando llegaste tu
te metiste en mi ser
encendiste la luz
me llenaste de fe
tanto tiempo busque
pero al fin te encontre
tan perfecta como te imagine oo nooo
como aguja en un pajar
te busque sin cesar
como huella en el mar
tan dificil de hallar
tanto tiempo busque
pero al fin te encontre
tan perfecta, como te imagine
sabes te quiero confesar
que te encuentro irressistible
no dejo de pensar
que haria lo imposible
por quedarme cerca de ti
cuando llegaste tu
te metiste en mi ser
encendiste la luz
me llenaste de fe
tanto tiempo busque
pero al fin te encontre
tan perfecta como te imagine
como aguja en un pajar
te busque sin cesar
como huella en el mar
tan dificil de hallas
tanto tiempo busque
pero al fin te encontre
tan perfecta, como te imagine
sabes, no pido nada mas
que estar entre tus braaazooos




[La ley del amor - sabes chords][La ley del amor - sabes cifra]
© LaCuerda.net · aviso legal · privacidad · es · en · pt · contacto