Acordes de Guitarra » M »Música de TV » El Chavo Del Ocho (Tab)

El Chavo Del Ocho
Música de TV

  • Tablatura
    e|-----------------0---------------------------------------
    B|-------------------3-1-0---------------------------------
    G|-0--------0--------------2-0-------0---------------------
    D|---2-2-2----2-2--------------3-2-3-----------------------
    A|---------------------------------------------------------
    E|---------------------------------------------------------
    
    e|-----------------0---------------------------------------
    B|-------------------3-1-0----------0-1--------------------
    G|-0--------0--------------2-0-----------------------------
    D|---2-2-2----2-2------------------------------------------
    A|---------------------------------------------------------
    E|---------------------------------------------------------
    
    e|------------------------------0---0----------------------
    B|-1---------1---1----3-0-3-0-----1---1--------------------
    G|---2-2-2-----2---2---------------------------------------
    D|---------------------------------------------------------
    A|------------------------------------
  • Tablatura
    e|-----------------------|-------------------|-0-------0-----9-|
    B|-----------------------|-------------------|---2-2-2---2-2---|
    G|---/2-/2-/2---/2-/2-/2-|---/2---/2---/2-/2-|-----------------|
    D|-----------------------|-------------------|-----------------|
    A|-0----------0----------|-0---------0-------|-0---------------|
    E|---------0----------0--|------0------------|-----4---2---0---|
    
    e|-7--------------0-------|0-------0-----9-|-7-----------2---|
    B|--10h9h7----------------|--2-2-2---2-2---|--10h9h7---------|
    G|--------9-7-6-7---------|----------------|--------9-10---2-|
    D|-0----------------------|----------------|-0-------------4-|
    A|------------------------|0---------------|---------------4-|
    E|--------0---5-4-2h0h2h4h|----4---2---0---|--------0-9--2-2-|
    
    e|-5-2-2-2-7-4-4-4-|-7-4-7-4-9----9----|-0-------0-----9-|-7--------
    B|-----------------|-----------10---10-|---2-2-2---2-2---|--10h9h7--
    G|-----------------|-------------------|-----------------|--------9-
    D|-----4-------6---|---
  • +
    ¡Colabora con nosotros!
    Envíanos tu versión de esta canción





© LaCuerda.net · aviso legal · privacidad · contacto
DINAMICO