Acordes de Guitarra » M »Música de TV » Dragon ball z- ocarina tapión (Tab)

Dragon ball z- ocarina tapión
Música de TV

Letras, Acordes y Tabs para Guitarra, Bajo y Ukulele

  • e-------8-6-4-6------------------------8-6-4-6-------------------------
    B-----6---------6-8-9--9-11-9-8------6---------6-8-9--9-8-6-4-6--------
    G-5-5----------------------------5-5-----------------------------------
    D----------------------------------------------------------------------
    A----------------------------------------------------------------------
    E----------------------------------------------------------------------
    
    e----------------8-6-4-6-----4-6--------------------------------------
    B-----6------------------6-4------6-8-9-----------9-9-11-9-8--------8-
    G-5-5---5-------------------------------10----10-------------9----9---
    D---------8-6-8----------------------------10------------------10-----
    A---------------------------------------------------------------------
    E---------------------------------------------------------------------
    
    e---------------8-6-4-6-----4-6-------------------------------------
    B-----6-----------------6-8-----6-8-9-------9-8-6-4-6-------6-------
    G-5-5---5-----------------------------10--------------5---5---------
    D---------8-6-8--------------------------10-------------6-----------
    A-------------------------------------------------------------------
    E-------------------------------------------------------------------
    
  • +
    ¡Colabora con nosotros!
    Envíanos tu versión de esta canción

Letra de Dragon ball z- ocarina tapión
Espero que les sirva !!!! :D
Aguante DB, DBZ Y DBGT !!!! Sabeeeee !!!!




[Dragon ball z- ocarina tapión chords][Dragon ball z- ocarina tapión cifra]
© LaCuerda.net · aviso legal · privacidad · es · en · pt · contacto