Acordes de Guitarra » M »Música de TV » Dragon ball z - cortina sagaboo (Tab)

Dragon ball z - cortina sagaboo
Música de TV

Letras, Acordes y Tabs para Guitarra, Bajo y Ukulele

  • e----11-13-13-13-13--13-15-16-15-13--11-13-11-13------------
    B-13--------------------------------------------------------
    G-----------------------------------------------------------
    D-----------------------------------------------------------
    A-----------------------------------------------------------
    E-----------------------------------------------------------
    
    e-----8-6-4-3-----------------------------------------------
    B---9---------6-4-1-------1---------------------------------
    G-8-----------------3-1-3-----------------------------------
    D-----------------------------------------------------------
    A-----------------------------------------------------------
    E-----------------------------------------------------------
    
    e----11-13-13-13-13--13-15-16-15-13--11-13-11-13------------
    B-13--------------------------------------------------------
    G-----------------------------------------------------------
    D-----------------------------------------------------------
    A-----------------------------------------------------------
    E-----------------------------------------------------------
    
  • +
    ¡Colabora con nosotros!
    Envíanos tu versión de esta canción






[Dragon ball z - cortina sagaboo chords][Dragon ball z - cortina sagaboo cifra]
© LaCuerda.net · aviso legal · privacidad · es · en · pt · contacto
DINAMICO