Acordes de Guitarra » M »Música de TV » Dragon ball super - opening (Tab)

Dragon ball super - opening
Música de TV

Letras, Acordes y Tabs para Guitarra, Bajo y Ukulele

  • INTRO: RE SOL RE SOL
    
    RE             SOL
    HOY DEBEMOS RETOMAR
    RE                             SOL
    ESOS SUEÑOS QUE TRUNCAMOS AL DUDAR
    RE                 SOL
    HASTA EL CIELO LLEGARA
    RE                             SOL
    EL CAMINO CON ESTRELLAS NOS GUIARÁ
    
    PRECORO:
    SOL                   LA
    ESTA NUEVA ETAPA SEGUIRÁ
    SIb        DO
    DESAFIANDO A LOS DIOSES
    
    RE                      FA#
    CON INTENSIDAD LUCHEMOS NO
                        SIm                MI
    
  • D G D G
    
    
    [Verso]
    
    D                G
    ¡Vamos! Sigamos ya
         D                            G
    Continuemos con los sueños a lograr.
    D                   G
    Cada puerta se abrirá
         D                              G
    en el cielo y las estrellas brillarán.
    
    
    [Pre-Coro]
    
    G                    A
    La oportunidad comenzará
    Bb               C
    
  • 1)|---------------|---------------|
    2)|---------------|---------------|
    3)|-------7-9-7---|-------4-2-4---|
    4)|-7-7-----------|--5-5----------|
    5)|---------------|---------------|
    6)|---------------|---------------|
    
    Parte #2:
                               X2
    
    1)|-----------------------------------------------------|
    2)|-----------------------------------------------------|
    3)|-------9-7-6-7---------------------------------------|
    4)|-7-7-------------9---5-5--7-5-4----5-4---------------|
    5)|--------------------------------------7------7-5-5---|
    6)|-----------------------------------------------------|
    
    Parte #3:
    
    
    
  • +
    ¡Colabora con nosotros!
    Envíanos tu versión de esta canción

Letra de Dragon ball super - opening
HOY DEBEMOS RETOMAR
ESOS SUEÑOS QUE TRUNCAMOS AL DUDAR
HASTA EL CIELO LLEGARA
EL CAMINO CON ESTRELLAS NOS GUIARÁ
PRECORO:
ESTA NUEVA ETAPA SEGUIRÁ
DESAFIANDO A LOS DIOSES
CON INTENSIDAD LUCHEMOS NO
TE RINDAS AUN SI PERDEMOS MAS FUERTE SERAS
RECONOCE TODO TU PODER
NO TE FRENES NI TE CULPES NUNCA
ESTA CERCA NUESTRA META
NO DESFALLES TRASCENDEREMOS TODA ADVERSIDAD
UN MEJOR FUTURO PRONTO LLEGARA.




[Dragon ball super - opening chords][Dragon ball super - opening cifra]
© LaCuerda.net · aviso legal · privacidad · es · en · pt · contacto