Acordes de Guitarra » M »Música de TV » Dragon Ball GT - inicio (Tab)

Dragon Ball GT - inicio
Música de TV

Letras, Acordes y Tabs para Guitarra, Bajo y Ukulele

  • E--0---0----------0---1---0---------------------------------------------------
    B----------1---3--------------3--1--0---1---1----0--1---3---1---0------0------
    G----------------------------------------------2-------------------2----------
    D-----------------------------------------------------------------------------
    A-----------------------------------------------------------------------------
    E-----------------------------------------------------------------------------
    
    E---------1-0---------0-1-0---------------------------------------------------
    B-------1-----1-----3--------3--1--3----1--1--0--1-------1--1--1-1------------
    G--0--2-----------------------------------------------------------------------
    D-----------------------------------------------------2-----------------------
    A-----------------------------------------------------------------------------
    E-----------------------------------------------------------------------------
    
    E-----------------------------------------------------------------------------
    B--1------------1-------------------------------------------------------------
    G-----3---1--3-----3--------3--3--3--3--3--1--0--1--3--1----1--1--1--1--0----0
    D------------------------1-------------------------------------------------3--
    A-----------------------------------------------------------------------------
    E-----------------------------------------------------------------------------
    
  • +
    ¡Colabora con nosotros!
    Envíanos tu versión de esta canción






[Dragon Ball GT - inicio chords][Dragon Ball GT - inicio cifra]
© LaCuerda.net · aviso legal · privacidad · es · en · pt · contacto
DINAMICO