Acordes de Guitarra » M »Música de TV » Digimon 4 ending (Tab)

Digimon 4 ending
Música de TV

Letras, Acordes y Tabs para Guitarra, Bajo y Ukulele

  • SOL
    Por muy lejos
    RE            MIm   DO
    que nos encontremos
    RE
    Hey!!
    
    Intro: MIm RE DO RE x2
    
    
    MI
    Miro al cielo y no
    LA                   DO RE
    nunca estas cerca de mi
    MI
    Me pregunto si tu
    LA                DO        RE
    estarás viendo lo mismo que yo
    
    
    
  • SOL             RE
    No importa lo lejos que
           MIm       DO  RE
    te encuentres tu
    
    MI                  LA
    He de llegar a ti
                        DO          RE
    miro al cielo para ver donde estas
    MI                  LA
    y pienso que tal vez tu y yo lo mismo
    DO       RE
    podemos ver
    
    DO#m     SOL#m
    mis sentimiennto
    DO#m      SOL#m
    te alcanzara
    LA                                SI
    en mi corazon lo guardo siempre y en el futuro
    
  • G              D               Em             C - D
    No importa lo lejos que te encuentres tuuuuu.
    hey!
    
    INTRO:  Em-D-C-D x2
    
    primera parte
    
    e)---------------------------------------------------------------------------
    b)---------------------------------------------------------------------------
    g)-----------------7-----9---7-----------------------------------------------
    d)-------------9------9----------10--9---7---9--7----------9--9--7-----------
    a)--7----10--------------------------------------------10--------------------
    e)---------------------------------------------------------------------------
    
    segunda parte
    
    e)---------------------------------------------------------------
    b)---------------------------------------------------------------
    g)-----------------7-----9---7-----------------------------------
    
  • +
    ¡Colabora con nosotros!
    Envíanos tu versión de esta canción

Letra de Digimon 4 ending
No importa lo lejos que
te encuentres tu
He de llegar a ti
miro al cielo para ver donde estas
y pienso que tal vez tu y yo lo mismo
podemos ver
mis sentimiennto
te alcanzara
en mi corazon lo guardo siempre y en el futuro
ha de florecer
el sueño sera una realidad
no habra distancia que nos pueda separar
y la inocensia nos dara
la fuerza que nos unira
y surgira
con tu sonrisa a la luz
Bueno, espero que les guste
nos vemos!!!!




[Digimon 4 ending chords][Digimon 4 ending cifra]
© LaCuerda.net · aviso legal · privacidad · es · en · pt · contacto
DINAMICO