Acordes de Guitarra » M »Música de TV » Angel (Tab)

Angel
Música de TV

Letras, Acordes y Tabs para Guitarra, Bajo y Ukulele

  • Intro (F Bb C Am Dm Gm)
    
    
    Verse 1
    F
    Angel,
            Bb
    la niña de las flores
    C
    llenas,
                Am
    los prados de colores
    Dm             Gm
    nos rodeas con tu bondad
                C
    y con todo tu amor
    
    
    Verse 2
    F
    
  •  E:-----------------------------------------------------------------|
     B:-----------------------------------------------------------------|
     G:------------------7---5---4---4----------------------------------|
     D:----2---4---5---/-----------------7--5---5--4--2----4--5---------|
     A:----------------------------------------------------------3------|
     E:-----------------------------------------------------------------|
     
    
     E:-----------------------------------------------------------------|
     B:-----------------------------------------------------------------|
     G:-----------------7---5----4-4--/---11-12-------------------------|
     D:---2---4---5---/--------------------------10-----10----10/9------|
     A:-----------------------------------------------------------------|
     E:-----------------------------------------------------------------|
    
    
     E:----------------------------------------------------------------|
     B:----------------------------------------------------------------|
     G:----------------------------------------------------------------|
     D:--------4-----2----4------2----4/5------4----2---4/5--/--7--/10-|
    
  •    RE          SOL          LA           RE
    E---------------7-7------- -------------------------
    B--7-7---7-8-10-----10-8-- ----------7-8-10-10-8-7--
    G------------------------- --9-9---9----------------
    D------------------------- -------------------------
    A------------------------- -------------------------
    E------------------------- -------------------------
    
      SIm         MIm     LA            RE
    E--------------------- -----------------
    B------------7-8-7---- -----------5--7--
    G--7--7-7-9--------9-- --6-6--6-7-------
    D--------------------- -----------------
    A--------------------- -----------------
    E--------------------- -----------------
    
    =1ª Parte=
      RE             SOL
      ÁNGEL, LA NIÑA DE LAS FLORES,
      LA                   RE
    
  • +
    ¡Colabora con nosotros!
    Envíanos tu versión de esta canción

Letra de Angel
Verse 1
Angel,
la niña de las flores
llenas,
los prados de colores
nos rodeas con tu bondad
y con todo tu amor
Verse 2
Angel,
eres tan dulce y bella
tienes,
el brillo de una estrella
sacas,
lo bueno de la gente
con ejemplos de amor.
Con tu llave mágica
buscas esa flor
nos darás felicidad
y el camino mas fácil será
Verse 3
Angel, estrella de las flores
buscas aquellos siete colores
en una flor encontraras dando felicidad....
Esta cancion la dedico a mi sobrino
David Alexander Echeverria Perugachi con mucho cariño.....




[Angel chords][Angel cifra]
© LaCuerda.net · aviso legal · privacidad · es · en · pt · contacto