Acordes de Guitarra » M »Música Católica » Pescador De Hombres (Tab)

Pescador De Hombres
Música Católica

Letras, Notas, Punteos, Tablaturas y Acordes de Guitarra (Tabs & Chords)

  • Letra y Acordes
    D  A                   D    D7
    Tu   has venido a la orilla
               G                      A
    no has buscado, ni a sabios ni a ricos
                D    A            D   D7
    tan solo quieres   que yo te siga
    
          G                        F#m
       Señor, me has mirado a los ojos
           Em    A               D   D7
       sonriendo   has dicho mi nombre
               G                  F#m
       en la arena, he dejado mi barca
               Em A              D   
       junto a ti   buscaré otro mar
    
    Tú, sabes bien lo que tengo, 
    en mi barca no hay oro ni espadas
    tan solo redes y mi trabajo
    
    
  • Letra y Acordes
    INTRO: C-G7-C
    
    C      G7               C-C7 
    Tu   has venido a la orilla
               F                      G
    no has buscado, ni a sabios ni a ricos
                C   G7            C-C7
    tan solo quieres   que yo te siga
    
          F   G      C-A 
       Señor, me has mirado a los ojos
         Dm              G7        C-C7
       sonriendo   has dicho mi nombre
               F   G                C-A 
       en la arena, he dejado mi barca
         Dm              G7        C-C7
       junto a ti   buscaré otro mar
    
    Tú, sabes bien lo que tengo, 
    en mi barca no hay oro ni espadas
    
  • Letra y Acordes
    DO-SOL,             LAm - DO7
    Tú has venido a la orilla,
              FA-REm                SOL
    no has buscado ni a sabios ni a ricos.
    SOL      DO-SOL            LAm  DO7
    Tan sólo quieres que yo te siga.
    
    
    FA-SOL                     DO   LAm
    Señor, me has mirado a los ojos,
         REm-SOL           DO       DO7
    sonriendo has dicho mi nombre.
           FA   SOL          DO    LAm
    En la arena he dejado mi barca
            REm-SOL         DO
    junto a Ti buscaré otro mar.
    
    
    DO-SOL,              LAm - DO7
    Tú sabes bien lo que tengo,
    
  • Tablatura
    e|-------------------|---------------------------|
    B|-7--5-7-8-7-5------|-5--7-8--8--8-8-7-8-5------|
    G|--------------7--7-|-----------------------7---|
    D|-------------------|---------------------------|
    A|-------------------|---------------------------|
    E|-------------------|---------------------------|
    
    e|-------------------------|-0-7--7-8-10-8-7-5---|
    B|------5-7--7--7-8-5------|-------------------8-|
    G|-4-7-----------------7-7-|---------------------|
    D|-------------------------|---------------------|
    A|-------------------------|---------------------|
    E|-------------------------|---------------------|
    
    e|-5------5-7-5--------|-----5--5--5-7-8-7-5-------------------------|
    B|---8-8--------8-7--5-|---------------------8-8--7-5-7--5-7-8-7-5---|
    G|---------------------|-5-5---------------------------------------7-|
    D|---------------------|---------------------------------------------|
    A|---------------------|---------------------------------------------|
    E|---------------------|---------------------------------------------|
    
  • Tablatura
    e --2--0--2--3--2--0------------
    B --------------------3-3-------
    G ------------------------------
    
      no has Buscado ni a sabios ni a ricos
    e ----2--3-3--3-3-2-3------------
    B -2------------------5---------
    G ------------------------------
    
      Tan solo quieres que yo te sigua
    e ----------2--2---2--3---------
    B -0--3--5---------------5--3--3
    G ------------------------------
    
      SEÑOR ME HAS MIRADO A LOS OJOS SONRIENDO HAS DICHO MI NOMBRE
    e ----7--7-9-10-9-7-5--5----5--3--3---5--7--5--3--3s5--5-
    B -3----------------------------------------------------
    G ------------------------------------------------------
    
      EN LA ARENA HE DEJADO MI BARCA JUNTO A TI  BUSCARE OTRO MAR
    
  • +
    ¡Colabora con nosotros!
    Envíanos tu versión de esta canción
  • Tutorial
    HD
    CANTO PARA LA MISA - Pescador de Hombres con letra y acordes
    4:26

Letra de Pescador De Hombres
Tu has venido a la orilla
no has buscado, ni a sabios ni a ricos
tan solo quieres que yo te siga
Señor, me has mirado a los ojos
sonriendo has dicho mi nombre
en la arena, he dejado mi barca
junto a ti buscaré otro mar
Tú, sabes bien lo que tengo,
en mi barca no hay oro ni espadas
tan solo redes y mi trabajo
Tú necesitas mis manos,
mi cansancio que a otros descanse
amor que quiera seguir amando...
Tú pescador de otros lagos,
ansia eterna de hombres que esperan
amigo bueno que así me llamas...
***********************************************
Saludos a comunidades de 'Cristo Rey' y
'Madre del Verbo Divino' de Cochabamba-Bolivia



© LaCuerda.net · Aviso Legal · Privacidad