Tablatura para Guitarra de Música Católica: Pescador De Hombres
Conexión · Inscripción
Letras y Acordes
Pantalla Completa
Imprimir
Versión Texto
Añadir Favorito
Otras Versiones

Mostrar Diagramas
Desfile Automático
Manipular Acordes
Formato del Texto


Pescador De Hombres(TAB)

Música Católica

calidad:
cato0363
AUTOR: Música Católica  corregir
ALBUM: desconocido
Enviado por Miguel
Las versiones anteriores son buenas y casi sin errores;
estoy seguro que la mía esta 100% bien, sin embargo puedo
equivocarme y les agradecería que me dijeransi lo hago

e|-------------------|---------------------------|
B|-7--5-7-8-7-5------|-5--7-8--8--8-8-7-8-5------|
G|--------------7--7-|-----------------------7---|
D|-------------------|---------------------------|
A|-------------------|---------------------------|
E|-------------------|---------------------------|

e|-------------------------|-0-7--7-8-10-8-7-5---|
B|------5-7--7--7-8-5------|-------------------8-|
G|-4-7-----------------7-7-|---------------------|
D|-------------------------|---------------------|
A|-------------------------|---------------------|
E|-------------------------|---------------------|

e|-5------5-7-5--------|-----5--5--5-7-8-7-5-------------------------|
B|---8-8--------8-7--5-|---------------------8-8--7-5-7--5-7-8-7-5---|
G|---------------------|-5-5---------------------------------------7-|
D|---------------------|---------------------------------------------|
A|---------------------|---------------------------------------------|
E|---------------------|---------------------------------------------|


D A7 D D7 Tu, has venido a la orilla
G A7 no has buscado, ni a sabios ni a ricos
D A7 D D7 tan solo quieres que yo te siga
G F#m Señor, me has mirado a los ojos
Em A7 D D7 sonriendo has dicho mi nombre
G F#m en la arena, he dejado mi barca
Em A7 D junto a ti buscaré otro mar Tú, sabes bien lo que tengo, en mi barca no hay oro ni espadas tan solo redes y mi trabajo
G Señor... Tú, necesitas mis manos, mi cansancio que a otros descanse amor que quiera seguir amando...
G Señor... Tú, pescador de otros lagos, ansia eterna de hombres que esperan amigo bueno que así me llamas
G Señor...
D7 Ddim Dmaj7 Fin bueno esto es todo, ojala les guste y cualquier duda o comentario arriba esta mi mail
Este fichero es trabajo propio de su transcriptor y representa su interpretación personal de la canción. El material contenido en esta página es
para exclusivo uso privado, por lo que se prohibe su reproducción o retransmisión, así como su uso para fines comerciales.

© LaCuerda.net · Aviso Legal · Privacidad