Acordes de Guitarra » M »Maná » No te rindas (Tab)

No te rindas
Maná

Letras, Acordes y Tabs para Guitarra, Bajo y Ukulele

  • D          A
    Va a amanecer
            E
    Va a sanar.
    
    A-E-A-Bm-E-Bm-E
    
    A
    No te me rindas mi vida
                          C#m
    duerme esperando otro día
                   Bm-E
    que saldrá el sol,
                   Bm-E
    no te rindas amor,
                   Bm-E
    resistir el dolor,
                           A
    yo, que te quiero a morir.
    
    
  • D            A                E     A  C#m  Bm  D  E
    Va a...amanecer....va a....sanar...
    
         A
    1.) No te me rindas mi vida, duerme esperando otro día...
            Bm            E            Bm     E            Bm
    que saldrá el sol... no te rindas amor...resistir al dolor,
    E                  A
    yo que te quiero a morir.
    
         A
    2.) Voy a sembrar en tu herida una flor, yo trataré de curar,
          Bm          E              Bm     E            Bm
    todo ese dolor... ten me fe corazón... esperanza y valor,
     E                 A
    yo que te quiero a morir.
    
    
    Precoro
    
    
  • A Amaj7 Bm E Bm E
    
    A
    No te me rindas mi vida
    Amaj7
    Duerme esperando otro día
                   Bm E
    Que saldrá el sol
                   Bm E
    No te rindas amor
                   Bm
    Resistir el dolor
    E                      A
    Yo, que te quiero a morir
    
    A
    Voy a sembrar en tu herida una flor
    Amaj7
    Yo tratare de curar
               Bm E
    
  •  RE        LA   RE        MI
     Va a amanecer, va a... sanar.
    
     (Música)
     LA  LAmaj7  LA   SIm  MI  SIm  MI
     SIm    MI   LA  LAmaj7  LAmmaj7
    
     LA
     No te me rindas mi vida
    
    LAmaj7                 LA
     duerme esperando otro día
    
               SIm     MI
     que saldrá el sol,
    
                   SIm  MI
     no te rindas amor,
    
                   SIm
    
  • Ps solo saque el intro e intermedio de esta exelente cancion,
    se escucha bien.
    
    
    INTRO:
    
    e|-----------------------------------------------------|
    B|---2-0--------2-0------------------------------------|
    G|-----------------------------------------------------|
    D|-2-----2~---2-----1h2~--2h4-2~--------------1h2------|
    A|---------------------------------2--4-5-4-2-----2~---|
    E|-----------------------------------------------------|
    
    e|---------------------------------|
    B|---------------8/9-77-55-33-22---|
    G|---------------------------------|
    D|---------------------------------|
    A|-2--4-5-4-2----------------------|
    E|---------------------------------|
    
    
    Aki es cuando sube de tono
    INTERMEDIO:
    
    e|--------------------------------|
    B|---4-2--------4-2---------------|
    G|--------------------------------|
    D|-4-----4~---4----3h4~--4h6-4~---|
    A|--------------------------------|
    E|--------------------------------|
    
    
    +++++++++++++*******************+++++++++++++
    Ps es todo, saludos a Azael, Carlos y Ri
  •       A    C#m    Bm        E    Bm
    e----------------------------------------------
    B----------------------------------------------
    G--6-4---6-4-----------------------------------
    D-------------2/4/2----------------------------
    A-7---7-7---7--------4-5-4--7------4-5-4-------
    E-------------------7------7-7---7------7------
      E            A
    e--------------------------------------
    B-9/7/7/6/6/3/3/2----------------------
    G-9/7/7/5/5/4/4/2----------------------
    D--------------------------------------
    A--------------------------------------
    E--------------------------------------
    A                         C#m
    no te me rindas mi vida duerme esperando otro dia
                  Bm
    que saldra el sol
    E              Bm  E           Bm   E                  A
    no te rindas amor resistir el dolor yo que te quiero a morir
    
  • +
    ¡Colabora con nosotros!
    Envíanos tu versión de esta canción

Letra de No te rindas
Va a amanecer
Va a sanar.
No te me rindas mi vida
duerme esperando otro día
que saldrá el sol,
no te rindas amor,
resistir el dolor,
yo, que te quiero a morir.
Voy a sembrar en tu herida una flor
yo tratare de curar
ese dolor
tenme fe corazón
esperanza y valor,
yo, que te quiero a morir.
Va a amanecer
va a sanar.
Te voy a curar
me extrañas tanto tanto
pero aguanta corazón
tu soledad se va
te voy a curar.
No te rindas mi vida
siembra unas flores
de amor en tu herida
ay corazón,
siempre habrá un nuevo amanecer.
Te amo a morir.
No te rajes mi vida
siempre la suerte
nos cambia, nos gira
ay corazón
siempre habrá un nuevo amanecer.
Sale el Aol.
Se repite el Intro pero ahora un tono mas arriba
No te me rajes mi vida mi amor
eres un roble valiente
con la cara al sol,
vamos a resistir
como el arbol de pie,
ponte de pie hasta morir.
Va a amanecer uhh ahh.
Yo se que te pega el dolor,
tu sabes que vamos, tu sabes corazón
tu soledad se va.
Se va, se va.
No te rindas mi vida
siembra unas flores
de amor en tu herida
ay corazón
siempre habrá un nuevo amanecer.
Te amo a morir.
No te rajes mi vida
siempre la suerte nos cambia nos gira
ay corazón
siempre habrá un nuevo amanecer.
Sale el sol.
No te rindas mi amor
es la vida un milagro de Dios
ve cantando las penas
y suelta el dolor.
Amanecer.
Pronto llega el sol.
Con la esperanza de amanecer,
de renacer,
no te rindas amor.




[No te rindas chords][No te rindas cifra]
© LaCuerda.net · aviso legal · privacidad · es · en · pt · contacto