Acordes de Guitarra » M »Maná » Mis Ojos (Tab)

Mis Ojos
Maná

  • Letra y Acordes
         C
    Gracias a Dios
                Am
    que me dio mis ojos
             F
    que me dio mi boca
    G             C
    que me dio toda mi piel.
    
      G    C
    Tengo dos piernas
                Am
    para recorrer el mundo
                   F
    por los mares mas profundos
    G             C
    para llegar hasta ti.
    
    Am-G-F
    
    
  • Tablatura
            C
    Gracias a Dios
                 Am
    que me dio mis ojos
                   F    G
    que me dio mi boca
                     C
    que me dio toda mi piel.
    
      G    C
    Tengo dos piernas
                   Am
    para recorrer el mundo
                       F
    por los mares mas profundos
    G               C
    para llegar hasta ti.
    
    (Am G F G)
    
    
  • Tablatura
                C                  Am
    Gracias a Dios,     que me dio mis ojos,
    1. ---------0--0-0-------------------0--0-0-----|
    2. ---------1--1-1-------------------1--1-1-----|
    3. ---------0--0-0-------------------2--2-2-----|
    4. ---------2--2-2-------------------2--2-2-----|
    5. ---------3--3-3-------------------0--0-0-----|
    6. ---------0--0-0------------------------------|
                F         G                      C
    que me dio mi boca,     que me dio toda mi piel.
    1. ------------1-1--1-1---------------3---------|--------------|
    2. ------------1-1--1-1---------------0---------|-8-8\6-6-6\5--|
    3. ------------2-2--2-2---------------0---------|-9-9\7-7-7\5--|
    4. ------------3-3--3-3---------------0---------|--------------|
    5. ------------3-3--3-3---------------2---------|--------------|
    6. ------------1-1--1-1---------------3---------|--------------|
    
     G          C                       Am
    Tengo dos piernas,    para recorrer el mundo,
    1. ------------0--0-0--------------------0--0-0--|
    
  • Tablatura
    (El ligado va como " * " y el slide " /sl ")
         
           INTRO
         3 veces                                           1 vez
    E------------------------------------/----------------------------------------------
    B-------5-----------5--5*6--5-----/----5--------5--5*6--5---------------------------
    G-----5--5--------7-------------5--/---5--5-----7------------5----------------------
    D---5-----5----5-----------------5/--7------7--7------------------------------------
    A-----------------------------------/-----------------------------------------------
    E------------------------------------/----------------------------------------------
    
           GRACIAS AL CIELO...
       RIFF .1                                       SOLO :
    E-------------------------------|---------------------------------------------------
    B-------------------------------|---------------------------------------------------
    G-------------------------------|---------------------------------------------------
    D---------
  • Tablatura
                C                  Am
    Gracias a Dios,     que me dio mis ojos,
    1. ---------0--0-0-------------------0--0-0-----|
    2. ---------1--1-1-------------------1--1-1-----|
    3. ---------0--0-0-------------------2--2-2-----|
    4. ---------2--2-2-------------------2--2-2-----|
    5. ---------3--3-3-------------------0--0-0-----|
    6. ---------0--0-0------------------------------|
                F         G                      C
    que me dio mi boca,     que me dio toda mi piel.
    1. ------------1-1--1-1---------------3---------|--------------|
    2. ------------1-1--1-1---------------0---------|-8-8\6-6-6\5--|
    3. ------------2-2--2-2---------------0---------|-9-9\7-7-7\5--|
    4. ------------3-3--3-3---------------0---------|--------------|
    5. ------------3-3--3-3---------------2---------|--------------|
    6. ------------1-1--1-1---------------3---------|--------------|
    
     G          C                       Am
    Tengo dos piernas,    para recorrer el mundo,
    1. ------------0--0-0--------------------0--0-0--|
    
  • Tab p/Bajo
    Transcripcion por Fulvio Romeo
    hazardous_2004@hotmail.com
    Esta es una de las mejores que tiene Maná
    
    
    Intro
    |--------------------------------------|Se repite 2 veces
    |-----------------------3-3------------|este compas
    |-3-3-3-3-3-3-3-3-2-2-2-----2-2-2------|
    |--------------------------------------|
    y despues esto
    
    |--------------------------------------|
    |-----------------------3-3------------|
    |---------------------------2-2-2------|
    |-5-5-5-5-5-5-5-5-3-3-3----------------|
    
    Estrofa
    Gracias a Dios........
    |-------------------------------------------|
    |-------------------------------------------|
    |-3---3-3---2-----------6-7---7--10---10/-3-|resbala la cuerda hasta '3'
    |--------------5---5-5----------------------|
    
    |----------------|
    |-5-5-3-3-2-3-5--|
    |----------------|
    |----------------|
    |---------------------------------------------|
    |----------------------------9----------------|
    |-3---3-3---2-----------6-7----7---10---10/-3-|
    |--------------5---5-5--
  • +
    ¡Colabora con nosotros!
    Envíanos tu versión de esta canción

Letra de Mis Ojos
Gracias a Dios
que me dio mis ojos
que me dio mi boca
que me dio toda mi piel.
Tengo dos piernas
para recorrer el mundo
por los mares mas profundos
para llegar hasta ti.
Gracias al cielo
no olvido ponerme nada
tengo pies tengo mi espalda
y tambien mi corazon.
Tengo dos manos
para recorrer tus muslos
tus colinas tu cintura
para tocarte la piel.
Soledad me estas matando
me duele la piel por no tocarte
regresa que me estoy muriendo
de que me sirven mis ojos
si no te pueden ver
no te pueden ver
no te pueden ver (mis ojos)
no te pueden ver
no te pueden ver
no te pueden ver (mis ojos)
no te pueden ver
ay, mis ojos
no te pueden ver
noro no no no no
no te pueden ver.
Tengo dos ojos
los que ven el universo
los que lloran por tu ausencia
y te buscan sin parar.
Soledad me estas...



© LaCuerda.net · aviso legal · privacidad · contacto