Acordes de Guitarra » M »Maná » Como te extraño corazón (Tab)

Como te extraño corazón
Maná

Letras, Acordes y Tabs para Guitarra, Bajo y Ukulele

  • G Bm Am D 
    G Bm Am D G
    
          G  
    Teniamos solo algunos años  
      Bm                   Am 
    Cuando entonces yo te conoci
              D
    En el palmar
    
          G
    Teniamos la cabeza llena 
     Bm                      Am
    De ideales y repleto el corazon 
         D 
    De amor
    
            G
    Fuiste mi profunda vida
            Bm
    
  •  C-Em-Dm-G-
     C               Em                   Dm                G       C...
    e)-----------------8---|--------------------------------------|
    B)-----------5-6-8---8-|-7/8-6-----------6--7/8-6---------6---|
    G)-----4-5-7-----------|-------9-7-6-9-7----------9-7-6-9---7-|
    D)-5-7-----------------|--------------------------------------|
    A)---------------------|--------------------------------------|
    E)---------------------|--------------------------------------|
    
          C
    Teniamos algunos años
      Em                   Dm
    Cuando entonces yo te conoci
           G
    Del palmar.
         C                    Em
    Teniamos la cabeza llena de ideales
                   Dm         G
    Y repleto el corazón de amor.
    
    
  • INTRODUCCIÓN : C7  EM7  Dm7  G7
    
    
    E----------------------------8-|
    B-------------------5--6--8----|
    G----------4--5--7-------------|
    D----5--7----------------------|
    A------------------------------|
    E------------------------------|
    
    E-----------------------------|
    B--6/8--6--5----------5-----6-|
    G-------------7--6-------7----|
    D-----------------------------|
    A-----------------------------|
    E-----------------------------|
    
    E-----------------------------|
    B--6/8--6--5----------5--6----|
    G-------------7--6----------7-|
    
  • BUEEEEEEEEEEEEEEEEENO PUES LES MANDO ESTA TAB, ESTA VEZ NO TENGO A QUIEN
    DEDICARSELA PERO QUE CHINGAOS, ESCUCHENLA BIEN, CREO QUE SI ESTA BIEN
    
    
    INTRO Y VERSO
    G---------------------------
    D---5--5--------------------
    A-3------3--33-3------------
    E----------------3----------
      C
    
    G--------------------------
    D--------------------------
    A---7--7-------------------
    E-5-------5--55-5-0-0------
      A
    
    G----------------------------
    D---7--7---------------------
    A-5------5-55-5----5---------
    E--------------5--5----------
      D
    
    G--------------------------
    D--------------------------
    A---5--5--------5-5--------
    E-3-----3-3-3-3------------
      G
    Despues como q se escucha q resvala la cuerda va esto:
    G--------------------------
    D--------------------------
    A--------------------------
    E-8-0-8h-------------------
    
    Coro:
    
    G----------------------------
    D---77----------99----55-----
    A-5---5---55---7--7--3---3---
    E-------3----3---------------
      D     G      E     C
    
    
    
  • Intro (x2)
    
    
    G|----------------|----------------|----------------|---------------|
    D|---5------5-5---|---9------9-9---|---7------7-7---|---------------|
    A|-3---3-3------3-|-7---7-7------7-|-5---5-5------5-|---5-----2-2---|
    E|----------------|----------------|----------------|-3---3-3-----3-|
    
    G|------|------|
    D|------|------|
    A|------|------|
    E|-8/0--|-8/0--|
    
    
    Verso 1
    
    
    G|----------------|----------------|----------------|---------------|
    D|---5------5-5---|---9------9-9---|---7------7-7---|---------------|
    A|-3---3-3------3-|-7---7-7------7-|-5---5-5------5-|---5-----2-2---|
    E|----------------|----------------|----------------|-3---3-3-----3-|
    
    Teníamos algunos años cuando yo entonces yo te conocí frente al mar...
    
    
    G|----------------|----------------|----------------|---------------|
    D|---5------5-5---|---9------9-9---|---7------7-7---|---------------|
    A|-3---3-3------3-|-7---7-7------7-|-5---5-5------5-|---5-----2-2---|
    E|----------------|------------
  • +
    ¡Colabora con nosotros!
    Envíanos tu versión de esta canción

Letra de Como te extraño corazón
Teniamos solo algunos años
Cuando entonces yo te conoci
En el palmar
Teniamos la cabeza llena
De ideales y repleto el corazon
De amor
Fuiste mi profunda vida
Fuiste mi profunda herida
fuiste mi primer amor
Eres lo que mas recuerdo
Eres lo que yo he soñado
fuiste mi mejor amor
Ohh amor..
Como, como te extraño corazon
yo no te puedo olvidar
Como, como te extraño corazon
yo no te puedo olvidar
Ibamos siempre a caminar
Bajo esa lluvia que en verano cae
Sin parar
Siempre buscando la oscuridad
Buscando la libertad de explorar
Nuestra piel
Yo te di amor del bueno
Tu me diste amor del bueno
Empapados de amor
Me entregue profundamente
Te entragaste con el alma
Empapados en amor
Ohh amor...
En olvidar, se me pasa la vida soñando ohh
En olvidar, se me ha ido la vida volando
Yo no te puedo olvidar
Yo no te puedo olvidar
Ooooooh!
como te extaño
Ooooooh!
como te amo
Ooooooh!
como te extraño corazon
(BIS).
Esta es una de mis favoritas
Espero suene bien :^ )




[Como te extraño corazón chords][Como te extraño corazón cifra]
© LaCuerda.net · aviso legal · privacidad · es · en · pt · contacto