Acordes de Guitarra » M »Maná » Como Diablos (Tab)

Como Diablos
Maná

Letras, Acordes y Tabs para Guitarra, Bajo y Ukulele

  •     E      G#m            C#m               B7
     Quede ahogado entre tus muslos y tu miel
         E        G#m        C#m                B7
     quede daniado cuando te fuiste con el,
         E        G#m              C#m          B7
     quede tan solo que he perdido la razon,
         E        G#m                  A        C#m  B7
     cai en tu fuego y esta quemando el corazon.
    
    
    CORO:
    
         E        B7        E       B7
     Como diablos te me metiste
         E      B7            B7
     me estas daniando el corazon,
         C#m         A      E       B7
     como diablos te me perdiste
     A   E      B7
     aya ya, ya yay.
    
  • ------------------------------|---------|4--2------|---------
    ------------------------------|5--4--2--|------5--4|---------
    ------1--------------1--------|---------|----------|------1--
    2-2-2------1---2-2-2------1-2-|---------|----------|2-2-2----
    --------2--------------2------|---------|----------|--------2
    ------------------------------|---------|----------|---------
    
    1----------------|---------|4--2--5--4--|-5-5-|------------
    2----------------|5--4--2--|------------|-5-5-|10---9---7-9
    3-------1--------|---------|------------|-6-6-|9----9---8-9
    4-2-2-2------1-2-|---------|------------|-7-7-|7----9---9-9
    5---------2------|---------|------------|-7-7-|------------
    6----------------|---------|------------|-5-5-|------------
    (LUEGO ENPIEZA LOS DEMAS INSTRUMENTOS Y FHER RASGUE CON ESTOS
    ACORDES EL INTRO)
    (E G#m C#m B)
    
     VERSOS:
    E         G#m              C#m         B
     Quedé ahogado entre tus muslos y tu miel
    
  • INTRO:
    ¦--------------¦----------------¦----------¦-4--2--------¦--------------¦
    ¦--------------¦----------------¦-5--4--2--¦-------5--4--¦--------------¦
    ¦-------1------¦-------1--------¦----------¦-------------¦-------1------¦
    ¦-2-2-2------1-¦-2-2-2------1-2-¦----------¦-------------¦-2-2-2------1-¦
    ¦---------2----¦---------2------¦----------¦-------------¦---------2----¦
    ¦--------------¦----------------¦----------¦-------------¦--------------¦
    
    ¦----------------¦----------¦-4--2--5--4--¦----5-5-¦--------------¦
    ¦----------------¦-5--4--2--¦-------------¦----5-5-¦-10---9---7-9-¦
    ¦-------1--------¦----------¦-------------¦----6-6-¦-9----9---8-9-¦
    ¦-2-2-2------1-2-¦----------¦-------------¦----7-7-¦-7----9---9-9-¦
    ¦---------2------¦----------¦-------------¦----7-7-¦--------------¦
    ¦----------------¦----------¦-------------¦----5-5-¦--------------¦
    
    SOLO:
    ¦----/\--------------¦----/\-----------¦--
  • E         B7             C#m          A
    Quede ahogado entre tus muslos y tu miel,
    E       B7              C#m       A
    quede dañado cuando te fuiste con el,
    E          B7            C#m        A
    quede tan solo que he perdido la razon,
    E          B7             A       C#m    B7
    cai en tu fuego y esta quemando el corazon.
    
    CORO:
    E  B7        E        B7  
    Como diablos te me metiste,
    E          B7             E
    me esta estallando el corazon,
    1. ----------4---------
    2. ----------5---------
    3. ----------6---------
    4. ----------6---------
    5. -7-6-4----4---------
    6. -------7--4---------
    
  •    <-------X2------>                 <-------X2------->
    
    
    -Solo de Armónica (C):
    
    -      5... 4 (4) 5 4 (4) 4 3
         4 4 3 4 3 4 3
         4 (4) 4 3(3)* 3 2
    
    
    -Gtrra. Eléctrica:
    
          A     A#sus2  E  B  E
    1. -5-5-5-|----7----7--7--0--|
    2. -5-5-5-|----10---9--7--0--|
    3. -6-6-6-|----9----9--8--1--|
    4. -7-7-7-|----7----9--9--2--|
    5. -7-7-7-|----7----7--9--2--|
    6. -5-5-5-|----7----7--7--0--|
    
    
  • Intro:
    G |----------------------|-----------------------|---------
    D |------6---------6-----|-----2-----------------|------6--
    A |--7-7-----6-7-7-----6-|-4-4-----4-2-2-2-2-2-2-|-7-7-----
    E |--------7---------7---|-------5---------------|--------7
    
                                                (entra bateria)
    G |--------------|-------------------------|---------------
    D |--------6-----|-----2-------------------|-----6---------
    A |--6-7-7-----6-|-4-4-----4-2-2-2/7-6-4-2-|-7-7-----6-7-7-
    E |----------7---|-------5-----------------|-------7-------
    
    
    G |--------|-----------------------|--------------------|--
    D |--6-----|-----2-----------------|-----6---------6----|--
    A |------6-|-4-4-----4-2-2-2-2-2-2-|-7-7-----6-7-7----6-|-4
    E |----7---|-------5---------------|-------7--------7---|--
    
    
    G |----------------------|---------------------------------
    D |----2-----------------|-7-7-6-4-2-----------------------
    A |--4-----4-2-2-2-2-2-2-|---------------------------------
    E |---
  •    Grazziaz por venir,pero en este momento no esta el rey de la    
     armonica. Pero les dejo este dificil trabajo de (Fher)MANA.
    
                   "Como diablos" Tono de E/o/Mi
    
                [ ] [ ] [ ] [+] [+] [ ] [ ] [ ] [ ] [ ]
                 1   2   3   4   5   6   7   8   9  10
    
                    D=RESPIRA   B=TIRA   O.K......
    
     P1:456B.... 5B5D5B5B5D.5B4B.4D4D4B4B.4D4B4B.4D4B4B.5B5D5B5B5D.5B4B..
      (HUNTOS)
     P2:456B.... 4B4D4D.5B4B.(4B) 4D4D4D5B4B.4D4D4D5B4B.4D4B..
      (HUNTOS)
     
       " gRaCIas" sU sERviDoRR sILvERiO R, aYOn. y qUE se diviertaN
     MucHo en eL VErano yo eN KaN-KUn y cHAu...........................
  • +
    ¡Colabora con nosotros!
    Envíanos tu versión de esta canción

Letra de Como Diablos
Quede ahogado entre tus muslos y tu miel
quede daniado cuando te fuiste con el,
quede tan solo que he perdido la razon,
cai en tu fuego y esta quemando el corazon.
Como diablos te me metiste
me estas daniando el corazon,
como diablos te me perdiste
aya ya, ya yay.
Estoy perdido en las venas de esta ciudad
extraniandote en la orilla de este bar,
como una rosa que esta en medio de la mar
me estas matando suavemente y sin piedad, oh no.
Como diablos te me metiste
me está daniando el corazon,
como diablos te me perdiste
aya ya, ya yay.
Si quiero vivir, tendre que olvidar;
y voy a borrar tu amor
si quiero vivir, tengo que olvidar.
Como diablos te me metiste
me estas daniando el corazon,
como diablos te me perdiste
aya ya, ya yay.
Como, como diablos, como duele,
oh no, no no.




[Como Diablos chords][Como Diablos cifra]
© LaCuerda.net · aviso legal · privacidad · es · en · pt · contacto