Acordes de Guitarra » M »Mago De Oz » Más que una intención (Tab)

Más que una intención
Mago De Oz

Letras, Acordes y Tabs para Guitarra, Bajo y Ukulele

  • e|------------------------------------------------------|
    B|------------------------------------------------------|
    G|-----11-13-14-13-11-----------11-13-11----11----------|
    D|--12----------------14--12-14----------14-------------|
    A|------------------------------------------------------|
    E|------------------------------------------------------|
    
    e|------------------------------------------------------|
    B|------------------------------------------------------|
    G|--------11-13-11------14-13-11--16-14-13--------11~---|
    D|--12-14----------14-----------------------------------|
    A|------------------------------------------------------|
    E|------------------------------------------------------|
    
    
    
    F#F#-C#C#-DD-EE-FF
    
    
    ahora te veo ahi
    
  • Quiero mandar un saludo a mis panas de la
    Universidad Salesiana de Quito. Un saludo a mis panas del grupo
    de música. Juan Pablo, Oscar “Oso”,
     Christian, Lizbeth y Alejo “Cachorro”.
    Que viva “Ecuador”, El Heavy Metal y Mago de Oz.
    
    Intro
    Min 00:00 Solo entran Guitarras
    
    Min 00:10 Entra el Bajo.
    G ---------------------------
    D --4-----0------------------
    A -----4------7---8---------- X2
    E ---------------------------
    
    Min 00:20
    G -----------------------------------------------------------
    D -4-4-4-4-4-4-4-4---------------0-0-0-0-0-0-0-0-------------
    A ----------------4-4-4-4-4-4-4-4---------------7-7-7-7-8-8-8
    E -----------------------------------------------------------
    
    G -----------------------------------------------------------
    D -4-4-4-4-4-4-4-4---------------0-0-0-0-0-0-0-0-------------
    A ----------------4-4-4-4-4-4-4-4---------------7-7-7-7-8-8-8
    E -----------------------------------------------------------
    
    Min 00:32
    G --------
    D -4------
    A --------
    E --------
    
    Min 00:37
    
  • +
    ¡Colabora con nosotros!
    Envíanos tu versión de esta canción

Letra de Más que una intención
F#F#-C#C#-DD-EE-FF
ahora te veo ahi
y me das miedo una vez mas.
siento que tu me miras
a veces dudo si no me ves.
no importa, ahora da igual.
estoy pensando en mi
que puedo hacer por ti.
intenta pasarlo bien
--no voy a construir
un himno con mi voz, no...
--ya lo intente una y otra vez
y me perdi.
esto x2
con estos akordes x atras:F#-C#-D-E-F
ahora quiero que entiendas
que solo soy uno mas
y si me ves de vuelta
me falta mucho por llegar.
ya ves, esto es asi
y esa es mi gran verdad.
no he perdido la ilucion
nome interpretes mal.
--quiero cantar,
quiero seguir asi.
--debo pensar que lo hago por mi,
aunque estes ahi.
--es algo mas que una intencion.
--es algo mas que una intencion.
--hasta que aguante el corazon
ahora me siento bien
si tu me entiendes.
no quiero anadir mas confusion
en tu mente.
y si ahora estoy aqui es solo
porque asi lo quise.
no tengo nada que decir;
o tal vez si, si tu lo sientes.
necesito estar enpaz...
necesito tu amistad...
es algo mas que una intencion,
es algo mas que una intencion,
es algo mas...
esto x2
cuando entra la flauta
esto x2
esto x2
--quiero cantar,
quiero seguir asi.
--debo pensar que lo hago por mi,
aunque estes ahi.
--es algo mas que una intencion.
--es algo mas que una intencion.
--hasta que aguante el corazon
--es algo mas que una intencion.
--es algo mas que una intencion.
--hasta que aguante el corazon
le dediko estaq cancion a todos los seguidores de mago en Costa Rica,
CABRONES!!!
y a Kembly




[Más que una intención chords][Más que una intención cifra]
© LaCuerda.net · aviso legal · privacidad · es · en · pt · contacto
DINAMICO