Acordes de Guitarra » M »Mago De Oz » In Memorian (Tab)

In Memorian
Mago De Oz

Letras, Acordes y Tabs para Guitarra, Bajo y Ukulele

  • C               G
    De latir se canso su corazón
    Am           C
    de tanto llorar su risa naufrago
    C                  G
    de tanto buscar un gran amor
    Am                            G
    de amarse a ella un día se olvido
    G          E          Am
    Su camino nunca encontró
               G            C
    Que daba tanto por andar
              E        Am
    que ella decidió volar
             C
    y se marcho para encontrar
    E                Am
    la sonrisa que perdió
             C
    y se durmió
    
  • e---------------------------------------
    B-------1--------1--------1--------1----
    G-----0---0----0---0----0---0----0---0-
    D---------------------------------------
    A--3---------3---------2-------2--------
    E---------------------------------------
       1.- De latir se canso, su corazon
       3.- De tanto buscar, un gran amor
    
    e---------------3--------3--------3------
    B-----1-----------1--------1--------1----
    G---0---0----0--------0---------0--------
    D----------------------------------------
    A-0--------0-----------------------------
    E-------------------1---------1----------
        2.- De tanto llorar, su risa naufrago
        4.- De amarse a ella un dia se olvido
    
    G         E           Am  G                  F
    su camino nunca encontro, que daba tanto por andar
    
  • C               G
    De latir se canso su corazón,
    Am                  G
    de tanto llorar su risa naufrago,
    C                  G
    de tanto buscar un gran amor,
    Am                            G
    de amarse a ella un día se olvido.
    
    
    G          E          Am
    Su camino nunca encontró,
              G            F
    Quedaba tanto por andar,
              E        Am
    que ella decidió volar,
    
    
              C            G
    Y se marcho para encontrar
    
  • E------------------------------------------3------3--------3--------|
    B-------1------1------1------1------1--------1----------------------|
    G------0--0---0--0---0--0---0--0---0--0---0------1--1----1---1------|
    D-------------------------------------------------------------------|
    A-----3-----3-----2------2------0------0----------------------------|
    E---------------------------------------------1--------1------------|
    Solo 1 con *Arpegio:
    E----------------------------------------------------|
    B-1--1--0-1-3-3-5/6-5-6-1----------------------------|
    G----------------------------------------------------|
    D--------------------------3-2-----------------------|
    A--------------------------------3/53---------------|
    E----------------------------------------------------|
    1era Estrofa.
    E------------------------------------------3-------3--------3--------|
    B-------1------1------1------1------1--------1-----------------------|
    G------0--0---0--0---0--0---0--0---0--0---0-------1--1----1--1-------|
    D--------------------------------------------------------------------|
    A----3------3------2------2------0------0----------------------------|
    E-----------------------------------------------1--------1-----------|
    
  • +
    ¡Colabora con nosotros!
    Envíanos tu versión de esta canción

Letra de In Memorian
De latir se canso su corazón
de tanto llorar su risa naufrago
de tanto buscar un gran amor
de amarse a ella un día se olvido
Su camino nunca encontró
Que daba tanto por andar
que ella decidió volar
y se marcho para encontrar
la sonrisa que perdió
y se durmió
para dejar ya de llorar
y se marcho
quiso volar ahora es brisa
hora es paz
y se marcho
ahora tiene un nuevo hogar
la eternidad
de tanto esperar se impaciento
de tanto sufrir su mirada se apago
su camino nunca encontro
que daba tanto por andar
Que ella decidio volar
Y se marcho para encontrar
la sonriza que perdio
y se durmio para dejar
ya de llorar
y se marcho quizo volar
ahora es brisa hora es paz
Y se marcho
y ahora tiene un nuevo hogar
hoy te escribo y te pido perdon
si no te ayude a vivir
pues sabes que encontre
otro amor
y ella es todo lo que soy
Y se marcho para encontrar
la sonriza que perdio
y se durmio para dejar
ya de llorar
y se marcho
quiso volar ahora es brisa
hora es paz
y se marcho
ahora tiene un nuevo hogar
la eternidad
Espero que les guste es la primera canción que mando,
me gustaría que chequen la parte en la que sube a F y cambia a E por
que no estoy muy seguro de la secuencia y tampoco si son los acordes
correctos pero se olle un poco bien, si alguien logra corregirme
Por favor díganmelo a mi correo
enrique_di_fellatio@hotmail.com
Gracias




[In Memorian chords][In Memorian cifra]
© LaCuerda.net · aviso legal · privacidad · es · en · pt · contacto