Acordes de Guitarra » L »Luis Silva » Venezuela (Tab)

Venezuela
Luis Silva

  • Letra y Acordes
    D          A7                    D
    Llevo tu luz y tu aroma en mi piel
                   G       D
    y el cuatro en mi corazón
    F#7                      Bm
    llevo en mi sangre la espuma del mar
    E7                    G     A
    y tu Horizonte en mis ojos  .
    D              A          D
    No envidio el vuelo ni el nido al turpial
                G             D
    soy como el viento en la mies
    F#7         Bm        A7     D
    siento el caribe como una mujer
             A7         D
    soy asi que voy a hacer.
    
                          G          D
    Soy desierto, selva, nieve y volcán
          Bm     E7         G A7
    
  • Letra y Acordes
    A         D       A
    Llevo tu luz y tu aroma en mi piel
                   D       A
    y el cuatro en el corazón
    C#7                      F#m
    llevo en mi sangre la espuma del mar
    B7                    D    E7
    y tu Horizonte en mis o... jos.
    A              D          A
    No envidio el vuelo ni el nido al turpial
                D             A
    soy como el viento en la mies
    C#7         F#m        E7     A
    siento el caribe como una mujer
             D         A
    soy así, que voy a hacer.
    
                          D          A
    Soy desierto, selva, nieve y volcán
          F#      B7        D    E
    
  • Tablatura
    Esta Es mi primera transcripción espero q les guste....
    
    e--------0---0-2-0-----------------3-2---2-2-2-3-2-0-0-------|
    B----3-3---3-------3-------3---0-3---------------------3-2-3-|
    G--2-----------------2---2---2-------------------------------|
    D------------------------------------------------------------|
    A------------------------------------------------------------|
    E------------------------------------------------------------|
    
    e--0-0-0-2-0-----------------0---0-2-0-----------------3-2---|
    B-------------3-3--2-----3-3---3-------3-------3---0-3-------|
    G----------------------2-----------------2---2---2-----------|
    D------------------------------------------------------------|
    A------------------------------------------------------------|
    E------------------------------------------------------------|
    
    e--2-2-0-0---3-5-5-3-2----0-2--0---------3-3-5-3-5-3-7-5-3-2-|
    B----------3------------3--------3-2-3-----------------------|
    G---------------------------------------------------------
  • Tablatura
    e--------0---0-2-0--------------------3-2---------|
    B----3-3---3-------3----------3---0-3-------------|
    G--2-----------------2------2---2-----------------|
    D-------------------------------------------------|
    A-------------------------------------------------|
    E-------------------------------------------------|
    
    e--2-2-2-3-2-0-0----------0-0-0-2-0---------------|
    B----------------3-2-3--------------3-3--2--------|
    G-------------------------------------------------|
    D-------------------------------------------------|
    A-------------------------------------------------|
    E-------------------------------------------------|
    
    e--------0---0-2-0-------------------3-2----------|
    B----3-3---3-------3---------3---0-3--------------|
    G--2-----------------2-----2---2------------------|
    D-------------------------------------------------|
    A-------------------------------------------------|
    E-------------------------------------------------|
    
  • Tablatura
     e|--------0---0-2-0--------------------3-2---------|
     B|----3-3---3-------3----------3---0-3-------------|
     G|--2-----------------2------2---2-----------------|
     D|-------------------------------------------------|
     A|-------------------------------------------------|
     E|-------------------------------------------------|
    
     e|--2-2-2-3-2-0-0----------0-0-0-2-0---------------|
     B|----------------3-2-3--------------3-3--2--------|
     G|-------------------------------------------------|
     D|-------------------------------------------------|
     A|-------------------------------------------------|
     E|-------------------------------------------------|
    
     e|--------0---0-2-0--------------------3-2---------|
     B|----3-3---3-------3----------3---0-3-------------|
     G|--2-----------------2------2---2-----------------|
     D|-------------------------------------------------|
     A|-------------------------------------------------|
     E|-------------------------------------------------|
    
     e|--2-2--0-0---0-3-5-3-2
  • +
    ¡Colabora con nosotros!
    Envíanos tu versión de esta canción

Letra de Venezuela
Llevo tu luz y tu aroma en mi piel
y el cuatro en mi corazón
llevo en mi sangre la espuma del mar
y tu Horizonte en mis ojos .
No envidio el vuelo ni el nido al turpial
soy como el viento en la mies
siento el caribe como una mujer
soy asi que voy a hacer.
Soy desierto, selva, nieve y volcán
y al andar dejo mi este la
el rumor del llano en una canción
que me desvela .
La mujer que quiero tiene que ser
corazón, fuego y espuela
con la piel tostada como una flor
de Venezuela .
Con tu paisaje y mis sueños me iré
por esos mundos de Dios
y tus recuerdos al atardecer
me harán más corto el camino.
Entre tus playas quedó mi niñez
tendida al viento y al sol
y esa nostalgia que sube a mi voz
sin querer se hizo canción.
De los montes quiero la inmensidad
y del rio la acuarela
y de ti los hijos que sembrarán
nuevas estrellas.
Y si un dia tengo que naufragar
y el tifón rompe mis velas
enterrad mi cuerpo cerca del mar
en Venezuela.
SE LA DEDICO A TODOS AQUELLOS QUE ESTÉN ORGULLOSOS DE SER VENEZOLANOS……



© LaCuerda.net · aviso legal · privacidad · contacto