Acordes de Guitarra » L »Luis Silva » Como no voy a decir (Tab)

Como no voy a decir
Luis Silva

Letras, Acordes y Tabs para Guitarra, Bajo y Ukulele

  • Em
    Si en mi mente habría existido algún motivo
                     Am           B7
    Tan especial, para hacer una canción
    
    Eres tú, y a grito abierto lo digo
                               Em
    Y si lo dudas, pregúntale al corazón (Bis)
    
    Coro 1
    Em                      Am
    Como no voy a decir, que me gustas
                               D           G
    Como no voy a decir, que eres centro de atracción
                 Em                   Am
    Si por primera vez, cuando aquél día te miré
                B7                   Em
    Mi alma tranquila, tuvo un síntoma de amor (Bis)
    
    II
    
  • Intro: (Em X3) C D G Am Em B7 (Em X4) C D G Am Em B7 Em
    
    
              Em             B7           Em
    Si en mi mente haya existido algún motivo
              Em  D           C      B7
    tan especial para hacer una canción,
    
    eres tu y a grito abierto lo digo
                                     Em
    y si lo dudas pregúntale al corazón.
    
              Em             B7           Em
    Si en mi mente haya existido algún motivo
              Em  D           C      B7
    tan especial para hacer una canción,
    
    eres tu y a grito abierto lo digo
                                     Em
    y si lo dudas pregúntale al corazón.
    
  •  B7sus4 Em E7      Am4add9    Am4       Am4add9    Em     Am4     B
    e ---------0-7-12-14-15--------------10-12-14----------8-10-12----7-8-10|
    B ---------------------------------12----------------10----------8------|
    G -------------13-14-16----------12----------------11-----------9-------|
    D --------2--------------------14----------------12------------9--------|
    A -------2--------------------------------------------------------------|
    E ------0---------------------------------------------------------------|
    
    Parte 2
       Am       Em      B7      Em       E7
    e -8--10-8--7--8--7-5--7-5-----------0-|
    B -10-12-10-8--10-8-7--8-7-4-3-----12--|
    G -------------------------2-1---12----|
    D -------------------------------------|
    A -------------------------2-2---------|
    E -----------------------------(0)-----|
    
    Parte 3
         Em  E7   Am            Em           B7       Em
    e ----0-7-12-14-15-------10-12-14-------8-10-12----7-8-10|
    
  • +
    ¡Colabora con nosotros!
    Envíanos tu versión de esta canción

Letra de Como no voy a decir
Si en mi mente habría existido algún motivo
Tan especial, para hacer una canción
Eres tú, y a grito abierto lo digo
Y si lo dudas, pregúntale al corazón (Bis)
Como no voy a decir, que me gustas
Como no voy a decir, que eres centro de atracción
Si por primera vez, cuando aquél día te miré
Mi alma tranquila, tuvo un síntoma de amor (Bis)
II
Hoy un angel se ha postrado en mi camino
Tu tan bonita de figura escultural
Muy juvenil, de mejillas sonrojadas
Y de castigo, una carita angelical (Bis)
Como no voy a decir, que me gustas
Como no voy a decir, que a tu lado quiero estar
Dale una primicia a mi ser enamorado
Si entre mis brazos, quieres dormir y soñar (Bis)
Si entre mis brazos, quieres dormir y soñar
Si entre mis brazos, quieres dormir y soñaaaaaaaaar....




[Como no voy a decir chords][Como no voy a decir cifra]
© LaCuerda.net · aviso legal · privacidad · es · en · pt · contacto