Tablatura para Guitarra de Luis Silva: Venezuela
Conexión · Inscripción
Letras y Acordes
Pantalla Completa
Imprimir
Versión Texto
Añadir Favorito
Otras Versiones

Mostrar Diagramas
Desfile Automático
Manipular Acordes
Formato del Texto


Venezuela(TAB)

Luis Silva

calidad:
lsil0104
AUTOR: Herrero
ALBUM: desconocido
Enviado por Seppy018
La transcripción originalmente pertenece a María, esta versión solo esta
modificado el final

e--------0---0-2-0--------------------3-2---------|
B----3-3---3-------3----------3---0-3-------------|
G--2-----------------2------2---2-----------------|
D-------------------------------------------------|
A-------------------------------------------------|
E-------------------------------------------------|

e--2-2-2-3-2-0-0----------0-0-0-2-0---------------|
B----------------3-2-3--------------3-3--2--------|
G-------------------------------------------------|
D-------------------------------------------------|
A-------------------------------------------------|
E-------------------------------------------------|

e--------0---0-2-0-------------------3-2----------|
B----3-3---3-------3---------3---0-3--------------|
G--2-----------------2-----2---2------------------|
D-------------------------------------------------|
A-------------------------------------------------|
E-------------------------------------------------|

e--2-2--0-0---3-5-5-3-2----0-2--0-----------------|
B-----------3------------3--------3-2-3-----------|
G-------------------------------------------------|
D-------------------------------------------------|
A-------------------------------------------------|
E-------------------------------------------------|

e--3-3-5--3-5--3-7-5-3-2-----0-2---7-5-3-2--0-----|
B--------------------------3----------------------|
G-------------------------------------------------|
D-------------------------------------------------|
A-------------------------------------------------|
E-------------------------------------------------|

e------------------2-3-5-----------2-0------------|
B--0-2-3-----5-----------3-------3------3---------|
G----------2----2--------------2------------------|
D-------------------------------------------------|
A-------------------------------------------------|
E-------------------------------------------------|

                (Todo se repite)
Este fichero es trabajo propio de su transcriptor y representa su interpretación personal de la canción. El material contenido en esta página es
para exclusivo uso privado, por lo que se prohibe su reproducción o retransmisión, así como su uso para fines comerciales.

© LaCuerda.net · Aviso Legal · Privacidad