Tablatura para Bajo de Luis Miguel: la Incondicional
Conexión · Inscripción
Letras y Acordes
Pantalla Completa
Imprimir
Versión Texto
Añadir Favorito
Otras Versiones

Mostrar Diagramas
Desfile Automático
Formato del Texto


la Incondicional(BAJ)

Luis Miguel

calidad:
lmig0336
AUTOR: Juan Carlos Calderón
ALBUM: Busca Una Mujer
Enviado por mauricio
Les envioe sta cancion
no sabia que tema sacar
le pregunte a mi mama que cancion le gusta
y me dijo que todas las de luis miguel
bueno esta era la unica que encontre
esta chala
saludos ma¡

Intro 00:12
E|-------------------|-3-|-4h5h6-|-------|-----4-|-6--|
A|-------------------|---|-------|-1h3h4-|-4h6---|----|
D|-----------13-10-8-|---|-------|-------|-------|----|
G|--10h12-11---------|---|-------|-------|-------|----|

      Tu 00:50
E|------|---|---|----------|---6-4-|-3-|-1-|---------|
A|--1/6-|-1-|---|-----3-33-|-3-----|---|---|-1-11-1--|
D|------|---|-3-|-3/5------|-------|---|---|---------|
G|------|---|---|----------|-------|---|---|---------|

No existe un lazo
E|-------|-3-33-|-4-44-|-44-----------|
A|--3-33-|------|------|----1-11-111--|
D|-------|------|------|--------------|
G|-------|------|------|--------------|

Tu la misma de ayer
E|-------|------|------|-1-11-111--|
A|--6-66-|------|------|-----------|
D|-------|-5-55-|-6-66-|-----------|
G|-------|------|------|-----------|

Tu
E|-------|------|-----|---4-|-6--|
A|--6-66-|------|---6-|-6---|----|
D|-------|-5-55-|-5---|-----|----|
G|-------|------|-----|-----|----|

E|--6/13-----|
A|-------13--|
D|-----------|
G|-----------|

Tu intensamente
E|-------|------|-----|-----------|---6-4-44-|-3-33-|-1-11-|---------|
A|--6-66-|-1-11-|-1---|------3-33-|-3--------|------|------|-1-11-1--|
D|-------|------|---3-|-335-------|----------|------|------|---------|
G|-------|------|-----|----35-----|----------|------|------|---------|

No existe un lazo
E|-------|----3-33-|-34-44-|-44-----------------|
A|--3-33-|-3/5-----|-------|----1-11-13-333-33--|
D|-------|---------|-------|--------------------|
G|-------|---------|-------|--------------------|

Tu la misma de ayer
E|-------|------|------|-3-33-333--|
A|--8-88-|------|------|-----------|
D|-------|-7-77-|-8-88-|-----------|
G|-------|------|------|-----------|

Tu
E|-------|------|-----|---6-|-6-8--|-----------|
A|--8-88-|------|---8-|-8---|------|-----------|
D|-------|-7-77-|-7---|-----|------|-8/10(x4)--|
G|-------|------|-----|-----|------|-----------|

Se repite el coro hasta el fin

Eso es
atte. miauricio gatolar
Este fichero es trabajo propio de su transcriptor y representa su interpretación personal de la canción. El material contenido en esta página es
para exclusivo uso privado, por lo que se prohibe su reproducción o retransmisión, así como su uso para fines comerciales.

© LaCuerda.net · Aviso Legal · Privacidad