Acordes de Guitarra » L »Luis Miguel » la Barca (Tab)

la Barca
Luis Miguel

Letras, Acordes y Tabs para Guitarra, Bajo y Ukulele

  •                 FA#m-FAm / MIm / LA7
    
    REmaj          SIº                 MIm7
    Dicen que la distancia es el olvido
    LA7                        RE  MIm
    Pero yo no concibo esa razón
      REmaj       SIº                 MIm7
    Porque yo seguiré siendo el cautivo
     LA7                       RE   DO#Ǿ - FA#
    De los caprichos de tu corazón
      SIm          DO#Ǿ   FA#         SIm
    Supiste esclarecer mis pensamientos
                  MI7           LA
    Me diste la verdad que yo soñé
                                 SOL
    Ahuyentaste de mi los sufrimientos
      SOL           DO#Ǿ          FA#
    En la primera noche que te amé
    
     SOL                          DO9
    
  •  D                         Em
    Dicen que la distancia es el olvido
     A7                     D
    pero yo no concibo esa razon,
                               Em
    porque yo seguire siendo el cautivo
    A7                          D   F#7
    de los caprichos de tu corazon.
      Bm           F#7           Bm
    Supiste enclarecer mis pensamientos,
                    E7      A
    me diste la verdad que soñe, 
                                 G
    ahuyentaste de mis tus sufrimientos
                               F#7
    en la primera noche que te ame.
     Em                        Gm
    Hoy mi playa se viste de amargura
     F#m                         B7
    porque tu barca tiene que partir
    
  • Edim7 -  Fm - Bb7 -  Ebmaj7-Fm-Gm-Ebdim7-   Fm--/G#m  ( Gm-F#m-Fm7- Bb7)
    
    
    -1-
    
     Ebmaj7        Ebdim7         Fm
    Dicen que la distancia es el olvido
    Bb7         Bb7b13       Ebmaj7 - Fm7
    pero yo no concibo esa razon,
    Ebmaj7      Ebdim7              Fm
    porque yo seguire siendo el cautivo
    Bb7         Bb7b13       Ebmaj7 - (Dm7b5 - G7)
    de los caprichos de tu corazon.
    
    -2-
    
      Cm7      Dm7b5 / G7     Cm7
    Supiste esclarecer mis pensamientos
                            Bb
    me diste la verdad que soñe,
    
  • INTRO: A#dim. Bm7 E7 AM7 Bm7 C#m7 Cdim. Bm7 Dm7 C#m7 Cdim. Bm7 E7
    
    
    AM7              D#dim         Bm7
    Dicen que la distancia es el olvido
    E7           Bm7   E7+5  AM7 Bm7
    pero yo no concibo esa razon,
    AM7           D#dim             Bm7
    porque yo seguire siendo el cautivo
    E7              Bm7 E7+5   A   C#7
    de los caprichos de tu corazon.
    
    
     F#         Bm7         C#7     F#m
    Supiste esclarecer mis pensamientos
                              E
    me diste la verdad que soñe,
                                  D
    ahuyentaste de mis tus sufrimientos
                   D7          C#4 C#7
    
  • A-Am-E-F#m-G#m-Gm-F#m-------F#m/G#m/Am-----G#m-Gm-F#m-B7
    
                            AQUI EMPIEZAN LOS ACORDES OIGAN LA ROLA PARA QUE LES SALGA
                             |
                             V
    e--4/7-7-----7----------7-14-14-|-16-14-12-11-12-14-14/16-16-|--7-9-11-7-9-11-7-9-11-7-9-11---|
    B--6/9-9--9--9-10-9--10-9-14-14-|-16-16-14-12-14-16-16----16-|--9-9--9-9-9--9-9-9--9-9-9-12---|
    G---------10---11-10-11---------|----------------------------|--------------------------------|
    D-------------------------------|----------------------------|--------------------------------|
    A-------------------------------|----------------------------|--------------------------------|
    E-------------------------------|----------------------------|--------------------------------|
    
    e-14-12-11-9--11-12-12/14--14-|--9---5-7-9-5-7-9-5-7-9-10-11-12-|--8--10-12-8--10-12-8--10-12--|
    B-16-14-12-11-12-14-14-----14-|--10--7-7-7-7-7-7-7-7-7-11-12-13-|--10-10-10-10-10-10-10-10-10--|
    G-----------------------------|---------------------------------|------------------------------|
    D-----------------------------|---------------------------------|------------------------------|
    A-----------------------------|---------------------------------|------------------------------|
    E-----------------------------|---------------------------------|------------------------------|
    
    e--14-11-12-14-11--12-13-|--10-11-13-10-11-12-9--7-5--5/10-9--7-5--|
    
  • [*] = tremolo = tres veces la misma nota muy rapido.
    
    a / b = slide
    
    INTRO:
    __                       
      \                                
    _  e||-------------------------------------[13]--|
    _) B||--8/11--11--8/11--11---9--8---9/11---------|
       G||--9/12--12--9/12--12--10--9--10/12---------|
    _  D||-------------------------------------------|
    _) A||-------------------------------------------|
       E||-------------------------------------------|
    __/          
    
    __                       
      \                                
    _  e||--15--13--11--10--11--13--15--10----|
    _) B||--15--15--13--11--13--15--15--11----|
       G||------------------------------------|
    _  D||------------------------------------|
    _) A||------------------------------------|
       E||------------------------------------|
    __/          
    
    __                       
      \                                
    _  e||----------10----------10----------10----------10--13-11-10-8-10-13-15--|
    _) B||--11--13--11--11--13--11-
  • +
    ¡Colabora con nosotros!
    Envíanos tu versión de esta canción
  • Tutorial
    HD
    GUITARRA
    como tocar el INTRO de LA BARCA requinto
    10:09

Letra de la Barca
Dicen que la distancia es el olvido
Pero yo no concibo esa razón
Porque yo seguiré siendo el cautivo
De los caprichos de tu corazón
Supiste esclarecer mis pensamientos
Me diste la verdad que yo soñé
Ahuyentaste de mi los sufrimientos
En la primera noche que te amé
Hoy mi playa se viste de amargura
Porque tu barca tiene que partir
A cruzar otros mares de locura
Cuida que no naufrague en tu vivir
Cuando la luz del sol se esté apagando
Y te sientas cansada de vagar
Piensa que yo por ti estaré esperando
Hasta que tú decidas regresar
Supiste esclarecer mis pensamientos
Me diste la verdad que yo soñé
Ahuyentaste de mi los sufrimientos
En la primera noche que te amé
Hoy mi playa se viste de amargura
Porque tu barca tiene que partir
A cruzar otros mares de locura
Cuida que no naufrague en tu vivir
Cuando la luz del sol se esté apagando
Y te sientas cansada de vagar
Piensa que yo por ti estaré esperando
Hasta que tú decidas regresar
hasta que tu decisa regresar




[la Barca chords][la Barca cifra]
© LaCuerda.net · aviso legal · privacidad · es · en · pt · contacto