Acordes de Guitarra » L »Luis Miguel » Historia de un Amor (Tab)

Historia de un Amor
Luis Miguel

Letras, Acordes y Tabs para Guitarra, Bajo y Ukulele

  • Dm    E7   A    A    G   E7----
    
    1a. Frase
    
            Dm                 E7
    Ya no estas mas ami lado corazon,
                        Am
    y en el alma solo tengo soledad,
                      G
    y si ya no puedo verte, 
                        F
    porque dios hiso quererte,
                         E7----
    para hacerme sufrir mas.
    
    2a. Frase
    
    Dm    E7   Am   Am   G   F   E7   Am
    
              Dm
    
  • Dm C G/B C G/B F/A Bdim F/A E/G#
    
    Am E7/B Am/C A/C# Dm7 G/B C F/A
    
    Bdim E7 Dm6/A
    
    
    
            Am           Bm7b5         E7
    Ya no estas mas a mi lado corazón
                    Asus(add2) Am       Em7(add4) Am(add2)
    en el alma sólo tengo      soledad
                     G(add2)
    y si ya no puedo verte
                            F(add2)
    por qué Dios me hizo quererte
           B7            E      E/D    Am/C
    para hacerme sufrir mas.
    
            Fmaj7       Bm7b5                E7b5
    
  •  Dm                    G        A7
    Ya no estas mas a mi lado corazon
                               Dm
    En el alma solo tengo soledad
                      C
    Y si ya no puedo verte
                            E
    Porque Dios me hizo quererte
            A7           Dm
    Para hacerme sufrir mas
    
    Dm                   G             A7
    Siempre fuiste la razon de mi existir
                              Dm
    Adorarte para mi fue religion
                           C
    En tus besos yo encontraba
                         E
    El calor que me brindaba
         A7           Dm
    
  • 1.0 INTRO:
    **********
    El intro lo he divido en partes para que sea mas fácil seguirlo, estas partes estan
    definidas por las lineas verticales.
    
    e|----13-12-13-10-|----15-13-12-10-12----|----13-12-10---10----|---12-10----10-12-|
    B|----------------|-------------------13-|-------------13---12-|---------13-------|
    G|----------------|-12-------------------|-10------------------|-9----------------|
    D|-12-------------|----------------------|---------------------|------------------|
    A|----------------|----------------------|---------------------|------------------|
    E|----------------|----------------------|---------------------|------------------|
    
    e|----17-15-13-12-13-10-|----15-13-12-10-12----|----13-12-10----10----|------------|
    B|----------------------|-------------------13-|-------------13----12-|---12-13----|
    G|-14-------------------|-12-------------------|-10-------------------|-9-------14-|
    D|----------------------|----------------------|----------------------|---------
  •   *Este intro esta muy facil, si conoces la melodia
    1
    e--0--0--12--12--12--10---13----------10---------------------
    B-----------------------------12--13-------------------------
    C------------------------------------------------------------
    
    2
    e--0--0--10--10--10-------12---------------------------------
    B---------------------13------13--10--12--13-----------------
    C------------------------------------------------------------
     
    3                                                       (Primer Final)              
    e--0--0--8-8-8/7--10--7---------7--7--7--5--8--5-------*-5-5-5--4--7-
    B------------------------8--10--------------------6--8-*-------------
    C------------------------------------------------------*-------------
    
    e--0-1-0--------0-----
    B---------3-1-3-------
    C---------------------
    
    
    **Repite 1,y 2, el la 3 solo cambia el Final  
    
    
    (Segundo Final)
    
    e--5-4----------------
    B-------8-7-5---------
    C---------------------
    
    
    Esta es la segunda parte de la Can
  • +
    ¡Colabora con nosotros!
    Envíanos tu versión de esta canción

Letra de Historia de un Amor
1a. Frase
Ya no estas mas ami lado corazon,
y en el alma solo tengo soledad,
y si ya no puedo verte,
porque dios hiso quererte,
para hacerme sufrir mas.
2a. Frase
Siempre fuistes la razon de mi existir,
Adorarte para mi fue religion,
En tus besos encontraba,
El calor que me brindabas,
El amor y la pasion.
ES LA HISTORIA DE UN AMOR,
COMO NO HAY OTRO IGUAL,
QUE ME HISO COMPRENDER TODO

EL BIEN, TODO EL MAL,
QUE LE DIO LUZ A MI VIDA,
APAGANDOLA DESPUES,
AY! QUE VIDA TAN OBSCURA,
SIN TU AMOR NO VIVIRE...
*Se repite Frase Numero 2 Y dos veses coro y final.

Disculpen los errores de autografia y a de ver uno que
otro error el la escritura de los tonos en la 2a. frase.
El intro esta en esta misma pagina de canciones.
*Version de Jose Rodriguez y escrita por Jose L. Ramos




[Historia de un Amor chords][Historia de un Amor cifra]
© LaCuerda.net · aviso legal · privacidad · es · en · pt · contacto