Acordes de Guitarra » L »Luis Miguel » Fría como el viento (Tab)

Fría como el viento
Luis Miguel

  • Letra y Acordes
      4/4:  DOm DOm LA# LA# - SOL# SOL# LA# LA# - DOm DOm LA# LA# -
    
      4/4:  SOL# SOL# LA# LA# - DOm DOm ...
    
    =ESTROFA 1.1=
    .DOm                     LA#          SOLm7
       TE RECUERDO ASÍ... TU PELO EN LIBERTAD,
       SOL#7           FAm         SOL          (SOL-FAm-SOLm-DOm)
       HIELO ARDIENTE, DIFERENTE A LAS DEMÁS...
    
    =ESTROFA 1.2=
    DOm                     LA#         SOLm7
       TE RECUERDO ASÍ... DEJÁNDOTE ADMIRAR,
       SOL#7       FAm         SOL               FAm7
       INTOCABLE, INACCESIBLE, IRREAL... IRREAAAAAAL...
    
    =CORO=
                    FAm         LA#           DOm7
    ...FRÍA COMO EL VIENTO, PELIGROSA COMO EL MAR,
    FAm              LA#      DOm
    
  • Letra y Acordes
    Dm            A#
    Te recuerdo así
        C7           F
    Tu pelo en libertad
    A#
    Hielo ardiente
    E7           A7
    Diferente a las demás.
    
    Dm           G
    Te recuerdo así
       C7          F
    Dejándote admirar
    A#          E7
    Intocable, inaccesible
    A7      D7
    Irreal, irreal.
    
    Gm            C7
    Fría como el viento
    
  • Letra y Acordes
     Cm                      A#           D#
       TE RECUERDO ASÍ    TU PELO EN LIBERTAD,
       G#             Fm          G
       HIELO ARDIENTE, DIFERENTE A LAS DEMÁS
     Cm                     A#          D#
       TE RECUERDO ASÍ  DEJÁNDOTE ADMIRAR,
       G#          Fm          G        C7
       INTOCABLE, INACCESIBLE, IRREAL IRREAAAAAL
    
       Fm            A#          D#            G#
       FRÍA COMO EL VIENTO, PELIGROSA COMO EL MAR,
     Fm              G        Cm            C7
       DULCE COMO UN BESO, NO TE DEJAS AMAR, POR ESO
     Fm              A#          D#             G#
       NO SÉ SI TE TENGO, NO SÉ SI VIENES O TE VAS,
     Fm             G           Cm
       ERES COMO UN POTRO SIN DOMAR
    
     Cm                     A#           D#
       TE RECUERDO ASÍ     JUGANDO A ENAMORAR,
    
  • Tablatura
       Cm    A#    G#   A#     Cm      A#    G#   A#    Cm
    E-----------------3-1--------- -------------3-1---------
    B------4-3------------3------- --4-3------------3-------
    G----------3------------3--5-- ------3------------3-5---
    D------------3-1-------------- --------3-1--------------
    A--3-------------------------- -------------------------
    E----------------------------- -------------------------
    
    
    =ESTROFA 1.1=
     Cm                      A#           Gm7
       TE RECUERDO ASÍ... TU PELO EN LIBERTAD,
       G#7             Fm          G
       HIELO ARDIENTE, DIFERENTE A LAS DEMÁS...
    
              Cm
    E--3----------
    B----4--3-----
    G---------5---
    D-------------
    
  • Tab p/Bajo
    no comienza con esto pero se puede acompañar
    E|----|----|
    A|--3-|-3--|
    D|----|----|
    G|----|----|
    aca recien
    E|-------------|----------------|
    A|-----------8-|----------------|
    D|--5-------8--|-8--------------|
    G|---5-7-8-7---|--8-10-10h12-10-|
    
    te recuerdo asi
    E|-----|----|----|-----4-|---3--|
    A|-----|----|----|-6-6+--|-5+---|
    D|-----|----|----|-------|------|
    G|--12-|-13-|-15-|-------|------|
    
    te recuerdo asi
    E|--4---|---|---|---|-3-4-|---|---|-4---|----------|
    A|---23-|---|-1-|---|-----|-5-|---|--23-|----------|
    D|------|-3-|---|-1-|-----|---|-5-|-----|-------5--|
    G|------|---|---|---|-----|---|---|-----|-3-h5-3---|
    
    Fria como el viento
    E|--1-|-4--|---|----|---|----|---|-3----|
    A|----|--1-|---|----|---|----|-3-|---3--|
    D|----|----|-1-|-4--|-3-|-35-|---|------|
    G|----|----|---|--1-|---|----|---|------|
    
    No se si te tengo
    E|--1-|-4--|---|-----|----|----|----|  |------|
    A|----|--1-|---|-----|-55-|-5--|-3--|  |------|
    D|----|----|-1-|-----|----|--5-|----|  |------|
    G|----|----|---|-2-1-
  • +
    ¡Colabora con nosotros!
    Envíanos tu versión de esta canción

Letra de Fría como el viento
Te recuerdo así
Tu pelo en libertad
Hielo ardiente
Diferente a las demás.
Te recuerdo así
Dejándote admirar
Intocable, inaccesible
Irreal, irreal.
Fría como el viento
Peligrosa como el mar
Dulce como un beso
No te dejas amar...
Por eso...
No sé si te tengo
No sé si vienes o te vas
Eres como un potro
Sin domar.
Te recuerdo así
Jugando a enamorar
Vanidosa, caprichosa,
Ideal.
Te recuerdo así
Amando sin amar
Imposible, imposible
De alcanzar, de alcanzar.
Fría como el viento
Peligrosa como el mar
Dulce como un beso
No te dejas amar...
Por eso...
No sé si te tengo
No sé si vienes o te vas
Eres como un potro
Sin domar.



© LaCuerda.net · aviso legal · privacidad · contacto