Acordes de Guitarra » L »Luis Miguel » la Incondicional (Tab)

la Incondicional
Luis Miguel

Letras, Acordes y Tabs para Guitarra, Bajo y Ukulele

  • A                    E
    Tu, la misma siempre tu
         Bm                 F#m
    Amistad, ternura que sé yo
    D                       A
    Tu, mi sombra has sido tu
                        Bm
    La historia de un amor
               E
    Que no fue nada.
    
    A                   A
    Tu,  mi eternamente tu
          Bm                    F#m
    Un hotel,  tu cuerpo y un adiós
    D                     A
    Tu,  mi oculta amiga tu
                  Bm
    Un golpe de pasión
             E
    
  • Intro: E  B  D A  E  E  B  D A  B
    
    E                    B
    Tu, la misma siempre tu,
        F#m               C#m
    Amistad, ternura que sé yo
    A                   G#m
    Tu, mi sombra has sido tu,
                       F#m                B
    La historia de un amor, Que no fue nada.
    
    E                  B
    Tu, mi eternamente tu,
          F#m                C#m
    Un hotel,  tu cuerpo y un adiós
    A                G#m
    Tu, mi oculta amiga tu,
                  F#m              B
    Un golpe de pasión, Amor de madrugada.
    
    
  • Intro: E  B  D A  E  E  B  D A  B
    
    E                    B   
    Tu, la misma siempre tu, 
        F#m               C#m
    Amistad, ternura que sé yo
    A                   E
    Tu, mi sombra has sido tu, 
                       F#m                B
    La historia de un amor, Que no fue nada.
    
    E                  B   
    Tu, mi eternamente tu,
          F#m                C#m
    Un hotel,  tu cuerpo y un adiós
    A                E      
    Tu, mi oculta amiga tu, 
                  F#m              B
    Un golpe de pasión, Amor de madrugada.
    
    
  •    D#         A#             G#           D#
    E--15--13-----------------------16-----13-15--
    B----------16-16--13-16-15---16----16---------
    G---------------------------------------------
    D---------------------------------------------
    A---------------------------------------------
    E---------------------------------------------
    
         (Bajo) (este punteito se toca rápido)
      G#         A#     D#
    G--12-13-12-------------
    D----------13-----------
    A------------13---------
    E---------------13--11--
    
                 (Punteo en Guitarra)
       D#     A#           G#        D#  A#
    E--3--1-------------------4----1-3-----------------
    B-------4-4--1-4-3-----4-----4-------11>13--11-11--
    G--------------------------------------------------
    
  • Les envioe sta cancion
    no sabia que tema sacar
    le pregunte a mi mama que cancion le gusta
    y me dijo que todas las de luis miguel
    bueno esta era la unica que encontre
    esta chala
    saludos ma¡
    
    Intro 00:12
    E|-------------------|-3-|-4h5h6-|-------|-----4-|-6--|
    A|-------------------|---|-------|-1h3h4-|-4h6---|----|
    D|-----------13-10-8-|---|-------|-------|-------|----|
    G|--10h12-11---------|---|-------|-------|-------|----|
    
          Tu 00:50
    E|------|---|---|----------|---6-4-|-3-|-1-|---------|
    A|--1/6-|-1-|---|-----3-33-|-3-----|---|---|-1-11-1--|
    D|------|---|-3-|-3/5------|-------|---|---|---------|
    G|------|---|---|----------|-------|---|---|---------|
    
    No existe un lazo
    E|-------|-3-33-|-4-44-|-44-----------|
    A|--3-33-|------|------|----1-11-111--|
    D|-------|------|------|--------------|
    G|-------|------|------|--------------|
    
    Tu la misma de ayer
    E|-------|------|------|-1-11-111--|
    A|--6-66-|------|------|-----------|
    D|-------|-5-55-|-6-66-|-----------|
    G|-------|------|------|--
  • INTRO OCTAVAS
    C           G   F           G
    mi re do do si  re do la fa sol sol
    mi re do do si  re do la fa sol
    
    
    C		       G5
    Tú, la mis-ma siem-pre tú
    mi  re do  re mi   sol re
    
           Dm		     Am
    a--mis-tad, ter-nu-ra que sé yo-o--o
    re mi  fa   mi  re mi fa  la mi re do
    
    F			 C5
    tú, mi  som-brahas si-do tú
    la  sol fa  sol    la do sol
    
    		     Dm  Dm7           G5  
    lahis to-ria deun a--mor que no fue na-da.
    fa    mi fa  sol  do fa  fa  mi do  do re
    
    
    
    C		       G
    Tú, mie ter-na-men-te  tú
    mi  re  do  re mi  sol re
    
          Dm                      Am
    un ho-tel, tu cuer-po yun a-- dio-o--os
    re mi fa   mi re   mi fa  la  mi  re do
    
    F                     C5
    tú, mio cul-taa mi-ga tú
    la  sol fa  sol la do sol
    
    		 Dm              Dm7       G
    un gol-pe de  pa-sión, a--mor de ma-dru-ga-da,
    fa mi  fa sol do fa    fa sol la la sol la si
    
    Am			 Em
    noe xis-teun la-zoen tre tu y  yo
    do  do  si   la si   do  si mi sol
    
    F                 G
    na-da 
  • +
    ¡Colabora con nosotros!
    Envíanos tu versión de esta canción

Letra de la Incondicional
Tu, la misma siempre tu
Amistad, ternura que sé yo
Tu, mi sombra has sido tu
La historia de un amor
Que no fue nada.
Tu, mi eternamente tu
Un hotel, tu cuerpo y un adiós
Tu, mi oculta amiga tu
Un golpe de pasión
Amor de madrugada.
No existe razón entre tu y yo
Nada de amores, nada de nada.
Tu, la misma de ayer, la incondicional
La que no espera nada
Tu, la misma de ayer, la que no supe amar
No sé por que.
Tu, intensamente tu
Soledad, cariño yo que sé
Tu, mis horas bajas tu
Un cuerpo de mujer
Un par de rosas blancas.
No existe un lazo entre tu y yo
No hubo promesas
Ni juramentos
Nada de nada.
Tu, la misma de ayer, la incondicional
La que no espera nada
Tu, la misma de ayer, la que no supe amar
No sé por que.




[la Incondicional chords][la Incondicional cifra]
© LaCuerda.net · aviso legal · privacidad · es · en · pt · contacto