Acordes de Guitarra » L »Luis Miguel » Inolvidable (Tab)

Inolvidable
Luis Miguel

Letras, Acordes y Tabs para Guitarra, Bajo y Ukulele

  • Intro Cm-F7 (x2)
    
    Cm
    En la vida hay amores
     F*- G7              Cm    Cm-Bm
    
    que nunca     pueden olvidarse
    Bbm
    
    imborrables momentos
     Eb7                   G#7
    
    que siempre guarda el corazón
          F*
    
    perdo aquello que un día
        G7                 Cm
    
    nos hizo temblar de alegría
     A7                           D7
    
  • Cm F7
    En la vida hay amores
     Cm
    
    que nunca       pueden olvidarse
    Fm  G7           Cm               (ta)Cm (ta)Cm (ta)Bm7
    
    imborrables momentos
     Bbm7
    
    que siempre guarda el corazón
         Eb7                Ab
    
    pero aquello que un día
       Fm7
    
    nos hizo temblar de alegría
     G7                  Cm
    
    es mentira que hoy pueda olvidarse
    
  •       Am7
    En la vida hay amores
         Bm75b      E7           Am7
    que nunca       pueden olvidarse
    G#m7 Gm7
    imborrables momentos
         C7/9                 Fmaj7
    que siempre guarda el corazón
            Bm75b
    pero aquello que un día
        E7                   Am7
    nos hizo temblar de alegría
          Am/F#                  B7/b9
    es mentira que hoy pueda olvidarse
                    E7/b9  F7  E7/b9
    como un nuevo amor
    
    He besado otras bocas
    buscando nuevas ansiedades
    y otros brazos extraños me estrechan
    
  •      Am
    En la vida hay amores
    
           Dm      E7       Am
    Que nunca pueden olvidarse;
    
              Gm
    Imborrables momentos
    
            C7                F
    Que siempre guarda el corazón
    
               Dm
    Porque aquello que un día
    
              E7           Am
    Nos hizo temblar de alegría
    
                                   B7
    Es mentira que hoy pueda olvidarse
    
  •   M.M. = 106
    |---------|---------|----------------|------------------|
    |---------|---------|----------------|--------1-2-3-----|
    |---------|---------|-3----3---3-----|--------------1---|
    |---------|---------|------------3-2-|-1----1-----------|
    
    
    |-------------------|--------------|-----------------|
    |-------------------|--------3--1--|-----------------|
    |-3----3---3--------|--------6-----|-3---3---3-------|
    |-------------3--2--|-1---1--------|------------3-2--|
    
    
    |----------------|----------------|--------------|
    |--------1-2-3---|----------------|--------3--1--|
    |--------------1-|-3----3---3-----|--------6-----|
    |-1----1---------|------------3-2-|-1---1--------|
    
    
    |----------------|----------------|-----------------|
    |----------------|-------1-2-3----|-----------------|
    |-3----3---3-----|-------------1--|-3----3---3------|
    |------------3-2-|-1---1----------|------------3-2--|
    
    
    |---------------|-----------------|------------------|
    |----------1-3--|---------
  • +
    ¡Colabora con nosotros!
    Envíanos tu versión de esta canción
  • Tutorial
    Inolvidable - Luis Miguel (Piano)
    2:25

Letra de Inolvidable
En la vida hay amores
que nunca pueden olvidarse
imborrables momentos
que siempre guarda el corazón
perdo aquello que un día
nos hizo temblar de alegría
es mentira que hoy pueda olvidarse
como un nuevo amor
He besado otras bocas
buscando nuevas ansiedades
y otros brazos extraños me estrechan
llenos de emoción
Pero solo consiguen hacerme
recordar los tuyos
que inolvidablemente vivirán en mi
inolvidable inolvidable
EADGBe




[Inolvidable chords][Inolvidable cifra]
© LaCuerda.net · aviso legal · privacidad · es · en · pt · contacto