Acordes de Guitarra » L »Lisandro Aristimuño » Plug del sur (Tab)

Plug del sur
Lisandro Aristimuño

Letras, Acordes y Tabs para Guitarra, Bajo y Ukulele

  •     A9             D9
    E||------------0-----------0---------------------||
    B||-------2------------------3-2-----------------||
    G||-----4---4-----------2---------2--------------||
    D||---2--------------4---------------------------||
    A||-0--------------0-----------------------------||
    E||----------------------------------------------||
    
         E/A              D7M9
    E||-------------0-----------0-------------0--------||
    B||--------0-------------------3-2--------2--------||
    G||------1---1-----------2----------2-----2--------||
    D||----2---------------2------------------2--------||
    A||--0------------------------------------0--------||
    E||------------------2-----------------------------||
    
    A9                           D9
    Hoy te llamo porque extraño tu canción
     E/A                 D7M9
    y en tu voz se calma el viento.
    
  •   A       D     Dsus2      C#m      F#m
    E - 0   E - 2   E - 0     E - 4     E - 2
    B - 2   B - 3   B - 3     B - 5     B - 2
    G - 2   G - 2   G - 2     G - 6     G - 2
    D - 2   D - 0   D - 0     D - 6     D - 4
    A - 0   A - 0   A - 0     A - 4     A - 4
    E - 0   E - 0   E - 0     E - 4     E - 2
    
    Intro: A - Dsus2
    
    
    A                           Dsus2
    Hoy te llamo porque extraño tu canción
    
    A                        Dsus2
    y en tu voz se calma el viento.
    
    A                         Dsus2
    No me saques de tus días, por favor
    
    
  • +
    ¡Colabora con nosotros!
    Envíanos tu versión de esta canción

Letra de Plug del sur
Hoy te llamo porque extraño tu canción
y en tu voz se calma el viento.
No me saques de tus días, por favor
yo quiero detener el tiempo.
Y así será, alguna vez.
Lento, va cayendo lento.
Y así verás que día es hoy.
Lejos quedó aquel momento de dolor.
Quiero verte solamente una vez más
y desprenderme de tu cuerpo.
Sin pensar en salvavidas de humedad
que raptaron largos sueños.
Y vos serás el plug del sur
que dejaron ver los cuentos.
y así verás que días es hoy.
Lejos quedó aquel momento de dolor.
Final:
(Pueden hacerla tocando el arpegio de la intro o bien rasgueando
estos acordes, cualquier duda o consulta: Joanemmanuel@hotmail.com)




[Plug del sur chords][Plug del sur cifra]
© LaCuerda.net · aviso legal · privacidad · es · en · pt · contacto
DINAMICO