Acordes de Guitarra » L »Lisandro Aristimuño » Me hice cargo de tu luz (Tab)

Me hice cargo de tu luz
Lisandro Aristimuño

Letras, Acordes y Tabs para Guitarra, Bajo y Ukulele

  • E (VII) B (VII) C#m (IV)
    A (V) E(VII)
    
    E                      B  C#m
    Me hice cargo de tu luz
    A                               E
    que desde afuera es tan hermosa
    
    E                      B  C#m
    me vi hundido en lo azul
    A                          E
    de todo el cielo de Mendoza
    
    E                   B  C#m
    Seguí la ruta y caminé
    A                         E
    cantando "A punto de caer"
    
    C#m                  B (II)
    Me hice imagen de tu cruz
    
  • E                      B7sus4  B7
    Me hice cargo de tu luz
    C#m   A9              B9/A   E(normal) Esus4
      Que desde afuera es tan hermosa
    Me vi hundido en lo azul
    De todo el cielo de Mendoza
    Seguí la ruta y camine
    Cantando a punto de caer.
       C#m               
    Me hice imagen de tu cruz
       D#°                  C#m
    Portando todo el viento zonda
       A9         E(norm)  B7(norm)
    Tu noche pareció preciosa
         A9/F#             C#m         D#° F#° 
    Y el día se mostro sin fin, sin fin…
    
    Me hice cargo por mirar
    Colores de tu piel tan rosa
    Es duro olvidarme de voz
    
  • E / B / C#m / A / B / E
    
    
    E      Emaj7         B  C#m
    Me hice cargo de tu luz
    A                    B        E
    que desde afuera es tan hermosa
    
    E      Emaj7          B  C#m
    Me vi hundido en lo azul
    A                  B       E
    de todo el cielo de Mendoza
    
    E     Emaj7       B  C#m
    Seguí la ruta y caminé
    A                  B       E
    cantando "A punto de caer"
    
    C#m                  D#dimn
    Me hice imagen de tu cruz
    
  • E||---------------------------||-----0-------------------|
    B||------------9--------------||-----------0-------------|
    G||*-----9----------9-----9--*||--------------8----------|
    D||*--------9----------9-----*||--------9----------9-----|
    A||---7-----------------------||--9-------------------9--|
    E||---------------------------||-------------------------|
    
    -----------------------|------------------------|------------------------|
    ----------5----4-------|---------------0--------|---------------0--------|
    ----------6----6-------|----------2-------2-----|----------4-------4-----|
    -------4--6---------6--|-------2-------------2--|-------2-------------2--|
    --4-------4------------|--0---------------------|--0---------------------|
    -----------------------|------------------------|------------------------|
    
    --------------------------|
    --------------------------|
    --1--1--2--1--2--1--------|
    --2-----------------2-----|
    --2--------------------2--|
    --------------------------|
    
  • +
    ¡Colabora con nosotros!
    Envíanos tu versión de esta canción

Letra de Me hice cargo de tu luz
A (V) E(VII)
Me hice cargo de tu luz
que desde afuera es tan hermosa
me vi hundido en lo azul
de todo el cielo de Mendoza
Seguí la ruta y caminé
cantando "A punto de caer"
Me hice imagen de tu cruz
cortando todo el viento Zonda
tu noche apareció preciosa
y el día se mostró sin fin, sin fin
Me hice cargo por mirar
colores de tu piel tan rosa,
es duro olvidarme de vos
en este trampolin de rocas
igual me quedo con tu boca
que sabe derretir dolor, dolor
Fue necesaria tanta luz
para poder seguir tu sombra
me hice imagen de tu cruz
cortando todo el viento Zonda
tu noche apareció preciosa
y el día se mostró sin fin, sin fin
Me hice cargo de tu luz
Me hice cargo de tu luz




[Me hice cargo de tu luz chords][Me hice cargo de tu luz cifra]
© LaCuerda.net · aviso legal · privacidad · es · en · pt · contacto