Acordes de Guitarra » L »Lisandro Aristimuño » Tu nombre y el mío (Tab)

Tu nombre y el mío
Lisandro Aristimuño

Letras, Acordes y Tabs para Guitarra, Bajo y Ukulele

  •    B5   Gmaj7-5   Em   D    Amaj  F#maj
    E|----------------0----2-----5-----2--
    B|--0------2------0----3-----5-----2--
    G|--4------4------0----2-----0-----0--
    D|--4------4------2----0--------------
    A|--2-------------2----------4-----1--
    E|---------3------0-------------------
    
        G    F#   Bm   A
    E|--3----2----2----0---
    B|--0----2----3----2---
    G|--0----3----4----2---
    D|--0----4----4----2---
    A|--2----4----2----0---
    E|--3----2-------------
    
    
    INTRO:  B5  -  Gmaj7-5 (x6)
    
    B5             Gmaj7-5
    
  •    B5   Gmaj7-5   Em*  G/D  C#?  Bb°
    E|------------------------------------
    B|--0------2----------------------2---
    G|--4------4------4----4-----4----0---
    D|--4------4------5----5-----5----2---
    A|--2-------------7----5-----4----1---
    E|---------3--------------------------
    
        D    A    G   Em   F#   C#°
    E|-------0---------7------------
    B|--7----5----3----8----2----5---
    G|--7----6----4----9----3----3---
    D|--7----7----5----9----4----5---
    A|--5----0---------7---------4---
    E|------------------------------
    
    Riff 1
    E|-------------------------
    B|------------------0------
    G|------------------4------
    
  • Bm                    G
    Hoy se respira viento sur
    Bm                G
    ese que nace del frío
    G                        F# 
    horno de barro calienta el sol
                      Bm
    de los lugares perdidos.
    
    Bm                    G
    Vuelve la calma de tu voz
    Bm                    G
    con la corriente del río
    G                        F# 
    manto de cielo sobre el tendal
                       Bm
    teje tu nombre y el mío.
    
    D           A        G        Bm
    Campo de colores descubren tu luz
    
  • +
    ¡Colabora con nosotros!
    Envíanos tu versión de esta canción

Letra de Tu nombre y el mío
Hoy se respira viento sur
ese que nace del frío
horno de barro calienta el sol
de los lugares perdidos.
Vuelve la calma de tu voz
con la corriente del río
manto de cielo sobre el tendal
teje tu nombre y el mío.
Campo de colores descubren tu luz
deja la lluvia caer
riega los suelos del sur
moja la nueva cosecha que vendra.
Tu cuerpo calma mi dolor
y se dibuja el camino
matra de cielo sobre el tendal
teje tu nombre y el mió.
Hoy se respira viento sur
ese que nace del frío
horno de barro calienta el sol
de los lugares perdidos.
Campo de colores descubren tu luz
deja la lluvia caer
riega los suelos del sur
moja la nueva cosecha q vendrá.




[Tu nombre y el mío chords][Tu nombre y el mío cifra]
© LaCuerda.net · aviso legal · privacidad · es · en · pt · contacto