Acordes de Guitarra » L »Liran'Roll » Pianista (Tab)

Pianista
Liran'Roll

Letras, Acordes y Tabs para Guitarra, Bajo y Ukulele

  • C     Em      Am      G    F     G
    C     Am     Dm      Dm/Am/E7
    C     Am     Dm      Dm/Am/E7
    
     C             Em           Am      G    F
     ESTA ES LA HISTORIA DE UN SÁBADO
            F          G      G
     QUE IMPORTA CUAL MES
              C        Em        Am       G
     Y DE UN HOMBRE SENTADO AL PIANO
            F          G       C     C
     QUE IMPORTA CUAL VIEJO CAFÉ.
    
    
    C      Em      Am      G      F
    G       C       C          F        F
    
             C          Em          Am        G
     TOMA EL VASO Y LE TIEMBLAN LAS MANOS
          F           Am      D     G
    
  • Intro: C Em Am G F G C Am D C-Em-Am-G
            (      *     )
     C              Em          Am    G      
     Esta es la historia de un sabado
      F      G         C    
     que importa cual mes
              C         Em       Am    G
     y de un hombre sentado al piano
            F          G       C
     que importa cual viejo cafe
    (     *        )     
    C Em Am G F G C 
    F         C          Em          Am   G   
     Toma el vaso y le tiemblan las manos
          F            Am      D   G
     apestando entre humo y sudor
            C        Em        Am     G
     y se agarra su tabla de naufrago
          F           G          C    
     volviendo a su eterna cancion
    
  • Intro: C C/B Am G F G C Am D C-C/B-Am-G
    
     C              C/B          Am    Am/G
     Esta es la historia de un sabado
      F      C         D  G
     que importa cual mes
              C         C/B       Am    Am/G
     y de un hombre sentado al piano
            F          G       C  C C/B Am Am/G F G C
     que importa cual viejo cafe
    
    
    Fmaj7     C
     Toma el vaso
           Em          Am  Em
    y le tiemblan las manos
          F           C        D   G
     apestando entre humo y sudor
            C        Em        Am   Em
     y se agarra su tabla de naufrago
    
  •    C                   C/B                    Am         Am/G
    1|-------------------|-----------------------|-0--------|-----------|
    2|-1-----------1-----|-3--------------3------|--------1-|-----1---1-|
    3|--------0----------|----------0------------|------2---|---0---0---|
    4|-------------------|-----------------------|----------|-----------|
    5|-3-----------------|-2---------------------|-0--------|-----------|
    6|-------------------|-----------------------|----------|-3---------|
        Esta  es   la   historia     de    un   sábado,
    
       Fmaj7     C                 D7       G
    1|----------|----------------|---------|---------------|
    2|-------1--|------------1---|-------1-|---------------|
    3|----2-----|----------------|-----2---|----------0----|
    4|-3--------|-------0--------|--0------|----0H2--------|
    5|----------|----------------|---------|---------------|
    6|----------|----3-----------|---------|-3-------------|
           Que importa    cuál  mes,            y  de   un
    
       C                C/B               Am       Am/G
    1|--------------|------------------|---0------|------------------|
    
  •                                                        F
    1|-0h1---3--3--1--0-1p0--------3------1-0-------0----1-1-1-
    2|-----------------------1----0---0p1------3---1-1---1-1-1-
    3|---------------------------0----------------0---0--2-2-2-
    4|---------------------------------------------------3-3-3-
    5|-------3--2------------0--------1----------3-------3-3-3-
    6|--------------------------3---------3--------------1-1-1-
    
    
    
    F         C          Em          Am   G
     Toma el vaso y le tiemblan las manos
          F            Am      D   G
     Apestando entre humo y sudor
            C        Em        Am     G
     Y se agarra su tabla de naufrago
          F           G          C
     Volviendo a su eterna canción
    
    
    
  • F         C          Em          Am   G
     Toma el vaso y le tiemblan las manos
          F            Am      D   G
     Apestando entre humo y sudor
            C        Em        Am     G
     Y se agarra su tabla de naufrago
          F           G          C
     Volviendo a su eterna canción
    
    OH,OH,OH, LA, LARALA,LARALA, LARALAAAA………………
    
    1|----------------------------------------1----------------
    2|---------1----0---1----------1----0----1-1------1----1---
    3|--------0----0---2----------0----0----2---2----0-0--0-0--
    4|---------------------------------------------------------
    5|--3-2-0---------------3-2-0------------------3-----0-----
    6|-----------3----1---3----------3----1--------------------
    
    1|--------1-1-1-1-0-0-0--------------
    2|---1----1-1-1-1-1-1-1--------------
    
  • El bajeo es entre comillas ya que la cancion va  a dos 
    guitarras una haciendo bajeo y arpegio y otra haciendo 
    requintos y arpegio tambien.
    
    INTRO:
    
    E--------3-1-3----------------3-------------
    A--3-2-0-------3----0-5-3-2-0---0-5-3-2-0---
    D-------------------------------------------
    
    
    EN LAS PARTES DONDE CANTA TRANQUILO VA ESTE BAJEO:
    
    E---------3-1-3----------------3-1-3----------3-1-3---
    A---3-2-0-------0-2-3-5--3-2-0-------3--3-2-0-------3-
    D-----------------------------------------------------
    
    
    EN LOS COROS UN POCA MAS LOCOS VA ESTE OTRO:
    
    E---------3-1------3--------3-1-3----
    A---3-2-0-----0-5-----3-2-0-------3--
    D------------------------------------
    
    
    ESTE BAJEO VA EN LOS OH OH LA LA...:
    
    E---------3-1-0--------3-1-3-------3-1-[----------]
    A---3-2-0--------3-2-0-------0-2-0-----[--3-2-0---]
    D--------------------------------------[----------]
    
    LO QUE ESTA ENTRE LOS CORCHETES VIENE EN UNOS Y EN OTROS 
    NO NADA MAS HAY QUE BUSCARLE.
    
    ESO ES TODO BA
  • +
    ¡Colabora con nosotros!
    Envíanos tu versión de esta canción

Letra de Pianista
Esta es la historia de un sabado
que importa cual mes
y de un hombre sentado al piano
que importa cual viejo cafe
Toma el vaso
y le tiemblan las manos
apestando entre humo y sudor
y se agarra su tabla de naufrago
volviendo a su eterna cancion
oh oh la la la la ra la la
oh oh la la la la ra
Toca otra vez viejo perdedor
haces que me sienta bien
es tan triste la noche que tu cancion
sabe a derrota y a miel
cada vez el espejo en la pared
le devuelve mas joven la piel
se le encienden los ojos, y su niñez
viene a tocar junto a el
Pero siempre hay borrachos con barbas
que le recuerdan quien fue
el mas joven maestro al piano
vencido por una mujer
oh oh la la la la ra la la
oh oh la la la la ra
Ella nunca quizo echar raices
que pudieran sus alas cortar
y en la jaula metida la vida se le iba
y quiso sus fuerzas probar
No lo deja que de malos paso
aunque nunca desea su mal
pero a ratos con furia golpea el piano
y hay algunos que lo han visto llorar
oh oh la la la la ra la la
oh oh la la la la ra
Toca otra vez viejo perdedor
haces que me sienta bien
es tan triste la noche que tu cancion
sabe a derrota y a miel
El microfono huele a cerveza
y el calor se podia tocar
solitarios oscuros buscando pareja
apurados un sabado mas
Hay un hombre aferrado al piano
la emocion empapada en alcohol
y una voz que le dice pareces cansado
y aun no ha salido ni el sol
oh oh la la la la ra la la
oh oh la la la la ra
Toca otra vez viejo perdedor
haces que me sienta bien
es tan triste la noche que tu cancion
sabe a derrota y a miel
*
puedes tocar Em7 en lugar de Em
segun tu agrado
espsero t agrade mi transcripccion
espero tener pronto el arreglo de la armonica saludos




[Pianista chords][Pianista cifra]
© LaCuerda.net · aviso legal · privacidad · es · en · pt · contacto