Acordes de Guitarra » L »Liran'Roll » Es Mi Vida (Tab)

Es Mi Vida
Liran'Roll

Letras, Acordes y Tabs para Guitarra, Bajo y Ukulele

  • A
    un planeta perdido
    Bm
    un abismo de dudas
    D
    una ley sin control
              Bm              A
    asi es mi vida y asi soy yo-o
    
    A
    he vagado en las calles
    Bm
    he aprendido a perder 
    D                 C#m
    voy viviendo el momento
                              A A7
    asi es mi vida y asi soy yo
    
    D            E
    y ahora comprendo
    
  • A             RIFF.1 Bm
    UN PLANETA PERDIDO
    
    UN ABISIMO DE DUDAS
    RIFF.2:
    
    EI-2h5-5--I
    
    BI--------I
    RIFF.3:
    
    EI--------I
    BI-5h7-5--I
    
    RIFF.2 D               C#m RIFF.3
          UNA LEY SIN CONTROL
    
    RIFF.4:
    EI--------------------0-I
    BI---2----------------2-I
    
  • Esta cancion va acompañada en G, Am, C, Bm, Am, G
    Y todo el requinto va en C,D, G, Bm, Em,D#, D, C, G
    
    PRIMERA PARTE
    ---------------------------------------------------------------------------------------------------
    ----------------------------------------------------------------------------------------12/10-12---
    ----------7-9-9----9-12-12-11-------------------------------------------------------7-8------------
    ----5-7/9-------10------------10/12-10-9-9-7-5-5/7-5-5------5-7-7/8-5-7-5-4-----4-7----------------
    -5/7----------------------------------------------------5/7-----------------5-5--------------------
    ---------------------------------------------------------------------------------------------------
    
    
    SEGUNDA Y TERCERA PARTE
    
    --------------------------------------------------------------------------------------------------------------------
    --------------------13----12----10/12-10----10-10/12/10----10-12-10--------------------------------------12/10------
    -----
  • +
    ¡Colabora con nosotros!
    Envíanos tu versión de esta canción

Letra de Es Mi Vida
un planeta perdido
un abismo de dudas
una ley sin control
asi es mi vida y asi soy yo-o
he vagado en las calles
he aprendido a perder
voy viviendo el momento
asi es mi vida y asi soy yo
y ahora comprendo
por que soy asi
es que no estas
tu-u ya conmigo
no entiendo al hombre
no lo puedo entender
vivo aislado del mundo
asi es mi vida
y asi soy yo
me he buscado a mi mismo
y no me logro encontrar
a que he venido a este mundo
cual es mi sitio y mi luga-ar
y ahora comprendo..etc
y ahora comprendo..etc
no entiendo al..etc.
eso es todo de esta chidisima rolisisima de liran roll
si quieren alguna otra por ai tengo unas cuantas.
atte:su inseguro servilleta.




[Es Mi Vida chords][Es Mi Vida cifra]
© LaCuerda.net · aviso legal · privacidad · es · en · pt · contacto