Acordes de Guitarra » L »Liran'Roll » El Trén (Tab)

El Trén
Liran'Roll

  • E--0----0----0--0-----0--0----
    A--0----0----0--0-----0--0----
    D--7----5----0--0-----0--0----
    G--7----5----7--8-----4--5----
    B--5----3----7--8-----4--5----
    e--0----0----5--6-----2--3----
    
    adorno
    
                  G5...se repite tres veces
    E--0-0---0-0--0--
    A--0-0---0-0--0--
    D--7-7---5-4--0--
    G--7-7---5-4--5--
    B--5-5---3-2--5--
    e--0-0---0-0--3--
                          C   Em         Esperabas.....
    e--0-0---0-0---I-------------0--
    B--0-0---0-0---I--------1---0-0--
    G--5-4---0-0---I-------0---0---0-- X2
    
  • +
    ¡Colabora con nosotros!
    Envíanos tu versión de esta canción

Letra de El Trén
adorno
G5...se repite tres veces
Esperabas el tren
Lo supe desde ayer
Dices que no aguantas mas
La vida de perro que llevas
Que ya no aguantas la soledad
Esperabas el tren
para escapar
todo termino
Dices que nunca volveras
Amar a alguien nunca jamas
ACORDES DEL SOLO...B5-E5-B5-E5-G5-C5-G5-C5-A5-E5-A5-B5-F5-A5-F5-D5-E5
Esperabas el tren
Muy decidida estas
Dices que no aguantas mas
La vida de perro que llevas
Que ya no aguantas la soledad
Que te marcharas
Y me olvidaras
Nunca volveras
y una vida nueva buscaras
Y todo esto olvidaras
Larararara...
larararara
sale si quieren todo la cancion completa
kn requinto y todos lo riffs que fltan
kntactenme a mi correo
y se las mando....
la verdad me dio hueva escribirlo todo
sale la banda hasta la proxima!!!!!!!!!




[El Trén chords][El Trén cifra]
© LaCuerda.net · aviso legal · privacidad · es · en · pt · contacto