Acordes de Guitarra » L »Líbido » Nectar (Tab)

Nectar
Líbido

  • Letra y Acordes
     Em  ----0-----       B7   -----0---
         ----0-----            -----0---
         ----0-----            -----2---
         ----2-----            -----1---
         ----2-----            -----2---
         ----0-----            -----0---
    
    
    
     C   ----0-----       C7   -----0---
         ----1-----            -----1---
         ----0-----            -----3---
         ----2-----            -----2---
         ----3-----            -----3---
         ----0-----            -----0---
    
    
    Nectar;
    
    
    
  • Letra y Acordes
    Em       E4     C         C7
    tocar el nectar es un viaje al placer
    Em     E4      C  C7 Em         E4
    de sueños y adioses sentirete cerca
    C  C7           Em
    es llegar a entender
    E4       C           C7
    por que dios se iso hombre heeee...
    
    ah ah ah ah ah ah ah
    Em       E4     C         C7        Em
    tocar el nectar envolverme en tu piel
          E4        C    C7 Em          E4
    perdermen en tu nombre mantente alerta
    C        C7   Em     E4          C       C7
    y sin miedo a perder pues la vida responde eeee
    G      A           C
    somos parte de un mismo camino
    G        A           F
    en busca de la verdad.......(asi en toda la canion)
    
  • Tablatura
            B----0---5-5-5--1-1--4-4-4-------
            G----0---3-3-3--0-0--2-2-2-------
            D----2---5-5-5--2-2--4-4-4-------
            A--2-2---3-3-3--3-3--2-2-2-------
            E--0-----------------------------
    
    con manolo: ( distorsion ) 
            E--------3-3-3--0-0--2-2-2-------
            B----0---5-5-5--1-1--4-4-4-------
            G----0---3-3-3--0-0--2-2-2-------
            D----2---5-5-5--2-2--4-4-4-------
            A--2-2---3-3-3--3-3--2-2-2-------
            E--0-----------------------------
    
    ... parte de un mismo....
            E---3---3---3---3---3-----
            B-----5---5---5---5-------
            G---------------------
            D---------------------
            A---------------------
    
  • +
    ¡Colabora con nosotros!
    Envíanos tu versión de esta canción

Letra de Nectar
Nectar;
NOTA; Toda la cancion tiene las mismas
notas, escepto en la parte que dice
'somos parte de un mismo...' ...bueno ahora si ...disfrutenlo:

Tocar el nectar es un viaje al placer de sueños y
adioses , sentirte cerca, es llegar a entender,
porque dios se hizo hombreeeee
Probar el Nectar y envolverme en tu piel , perderme en
tu nombre, mantente alerta y sin miedo a perder
pues la vida respondeeeeee
Somos parte de un mismo caminooooo
En busca de la verdadaaaaaaaa
y el tiempo corre dentro de mi tus labios gritan mi
nombre , mis lagrimas caen dentro de ti, entiende
Asi es toda la cancion....espero les guste tanto como ami.
para sugerencias , notas, intercambios mandenmelo a;
Etcetera88@latinmail.com
W, Gabriel t.r.
GRacias ATAME por darme esta posibilidad...Hare muchas mas transcripciones



© LaCuerda.net · aviso legal · privacidad · contacto