Acordes de Guitarra » L »Líbido » Nadie sabe lo que vendrá (Tab)

Nadie sabe lo que vendrá
Líbido

Letras, Acordes y Tabs para Guitarra, Bajo y Ukulele

  • D5 C#5 D5(x4)
    
    ay quien me hizo doler
    D5             C#5     D5
    ay quien me hizo reir
    D5             C#5     D5
    si todo gira y gira me da igual
    E5         G5      D5          E5
    si mis palabras duelen no quiero callar
    E5         G5            D5   E5     D5 C#5
    
    te odio tanto y no estoy mal
    D5            C#5     D5
    te odio tanto hasta sangrar
    D5            C#5     D5
    si la rutina me enseño a extrañar
    E5         G5      D5          E5        D5
    de todas formas me he quedado hasta el final
    D
     del cuento
    
  • intro: D - A - D -
           D - A - D
    
    D       A         D
    ay que me hizo doler
    D       A        D
    ay que me hizo reír
    Em       G          Bm       A
    si todo gira y gira me da igual
    Em        G            Bm      A
    si las palabras duelen no quiero callar
    D        A                D
    te odio tanto y no estoy mal ,
    D        A               D
    te odio tanto hasta sangrar
    Em      G           Bm         A
    si la rutina me enseño a extrañar
    Em        G             Bm       A        D
    de todas formas me he quedado hasta el final , del cuento
    G                     D    D7
    
  • Notas: C# - D - G - (YO CAMBIO LA Em POR A, EN EL CORO)
    
    Intro : D - C# - D .....
    (son quintas, pero el dedo meñique no cambia de posicion,
    se queda en la cuerda 4, en el traste 7. solo el indice cambia de D a C#)
       C#         D
    Ay que me hizo doler
       C#         D
    Ay que me hizo reir
       G D      G D              === aka se juega kon las 2 notas
    Si todo gira y gira
      G D
    Me da igual
      G D       G D
    Si mis palabras duelen
      G D      G D
    No quiero callar
    
        C#         D
    Te odio tanto y no estoy mal
    
  • E:--------------------------------
    B:--------------------------------
    G:--------------------------------   (X4)
    D:------(4)-----------------------
    A:--5-5-5-4-4-4-4-5-5-5-5-5-5-5-5-
    E:--------------------------------
        p p p p p p p p p p p p p p p
    
    Guitar 2
    
    E:------------------------------------
    B:----7-7-7-7-7-7-7-7-7-7-7-7-7-7-7-7-
    G:----7-7-7-6-6-6-6-7-7-7-7-7-7-7-7-7- (X4)
    D:------------------------------------
    A:------------------------------------
    E:------------------------------------
    
    VERSO:
    
    0:17
    
  • Hola de nuevo Soy Jeferson
    Esta es mi Cuarta canción de
    Libido que saco esta muy bien hecha
    Y Saludos a la Promo 2010 de Arequipa
    Del Colegio Bryce y solo les digo que se
    Fijenen los tiempos y la canción les
    Saldrá súper chvr ¡VIVA EL ROCK PERUANO¡
    
    ^=Dejar la nota tocar
    
    INTRO:(0:08)
    “EL BAJO TOCA EN BASE A LA BATERIA”
    E|-------------------------|
    A|-5^-3^-5^----------------| x2
    D|-------------------------|
    G|-------------------------|
    
    ay quien me hizo doler..........
    
    E|------------------------|
    A|-5^-3^-5^---------------| x2
    D|------------------------|
    G|------------------------|
    
    si todo gira y gira me da igual
    
    E|----------------------|
    A|------3^--------------|
    D|-2^-5^--2^------------|
    G|----------------------|
    
    si mis palabras duelen no quiero callar
    
    E|-------------------------|
    A|------3^---3^------------|
    D|-2^-5^--2^---------------|
    G|-------------------------|
    
    te odio tanto y no estoy mal
    
    E|----------------------|
    A|-5^-3^-5^-------------| x2
    D|-----------------
  • +
    ¡Colabora con nosotros!
    Envíanos tu versión de esta canción

Letra de Nadie sabe lo que vendrá
(son quintas, pero el dedo meñique no cambia de posicion,
se queda en la cuerda 4, en el traste 7. solo el indice cambia de D a C#)
Ay que me hizo doler
Ay que me hizo reir
Si todo gira y gira
Me da igual
Si mis palabras duelen
No quiero callar
Te odio tanto y no estoy mal
Te odio tanto hasta sangrar
Si la rutina me enseño a extrañar
De todas formas me he quedado
Hasta el final
(Te cuento)
Nadie sabe lo que vendra
Nada importa si tu no estas
(Mirandome)
Ay quien me vino a salvar
Ay quien me quiso olvidar
Si no te encuentro no vas a esperar
Y si te alejas siento que te quiero mas
Nadie sabe lo que vendra
Nada importa si tu no estas
(Mirandome)
(En esta parte esta +o-, pero solo juegas komo el solo d
"come as you are" y al final algo d armonicos.)
Nadie sabe lo que vendra
Nada importa si tu no estas
(Mirandome) x2
uhhhhhhh
ohhhhhhh con ambas notas [D/G]
oooohhhhhhh
Para kejas, abentadas d madre, Bezos, regalos , sugerencias:
Arthas34_2@hotmail.com y no pregunten sonseras, komo el rasgeo o algo
asi
T AMO KAROL...




[Nadie sabe lo que vendrá chords][Nadie sabe lo que vendrá cifra]
© LaCuerda.net · aviso legal · privacidad · es · en · pt · contacto
DINAMICO