Acordes de Guitarra » L »Líbido » Lonely (Tab)

Lonely
Líbido

  • Letra y Acordes
    DO#m     MI  LA                   MI
    Quiero reirme, por fuera no estoy mal
    DO#m     MI  LA             MI
    un poco sexy    por dentro simple
    
    SOL#  LA  DO#m
    SOL#  LA  MI
    
    
    DO#m     MI   LA                    MI
    Voy a rendirme, hoy  no puedo hacer mas
    DO#m      MI      LA           MI
    me siento feeling,   me siento lonely
    
    CORO:
    SOL#        LA             DO#m
    Me siento lonely, lonely, lonely
    SOL#       LA             DO#m
    Me siento lonely, lonely, lonely
    SOL#        LA             DO#m
    
  • Tablatura
    Cm
    
    C#m       E     A                      E        Con
     Quiero reírme,  por fuera no estoy mal       /Riff 1
                                                -/
    C#m       E     A            E                  Con
     Un poco sexy    por dentro simple            /Riff 2
                                                -/
    
    
    Riff 3:
       G#5     A5      C#5             G#5     A5      E5
    6/-4-4-----5-5---------------------4-4-----5-5-----0-/
    5/-----2-4-----3-4-4-4-----4-4---------2-4-----3-4---/
    4/---------------------2-4-----2-4-------------------/
    3/---------------------------------------------------/
    2/---------------------------------------------------/
    1/---------------------------------------------------/
        /esto lo hace la 2º guitarra
    6/--------------------------------/
    
  • Tablatura
    DO m #    MI M   La M            MI M
    Quiero reírme, por fuera no estoy mal
    DO m #   MI M  La M       Mi M
    Un poco sexy por dentro simple
    
    SOL M # / LA 5 / DO5 #
    Sol M #/ La 5 / Mi M
    
    (Acompañar con este punteo)
    
    Punteo 1 :
    
    6/-4-4---5-5----------------4-4---5-5---0-/
    5/----2-4---3-4-4-4---4-4------2-4---3-4--/
    4/-----------------2-4---2-4--------------/
    3/----------------------------------------/
    2/----------------------------------------/
    1/----------------------------------------/
    
    Punteo 2:
    
  • Tab p/Bajo
    Hola que talk soy Luis Salas este cifrado fue echo por mi
    profesorAlejandro Ventura Un buen musico y en su nombre lo
     publico.
    
    aderanalina10_18@hotmail.com: aahi les va...
    
    VERSO:1
    
           Quiero   reírme
    E|-----------|-----—--------|------------|
    A|-44----4-4-|--------------|--4--2---00-|
    D|--------—--|-1---22--2--2-|------------|
    G|-----------|--------------|------------|
    
     Por fuera estoy mal
    E|---------------00-|--4-------4-----|
    A|--0--0---0--------|------2---------|
    D|------------------|----------------|
    G|------------------|----------------|
    
          Un poco   sexy
    E|-----------|-----—-------|------------|
    A|-44----4-4-|-------------|--4--2---00-|
    D|--------—--|-1--22--2--2-|------------|
    G|-----------|-------------|------------|
    
     Por  dentro  simple
    E|---------------00-|--0--0------------|
    A|--0--0---0--------|------------------|
    D|------------------|------------------|
    G|------------------|------------------|
    
    
    Riff:1
    
    E|-4--4-------|--—----------|------------|----------
  • +
    ¡Colabora con nosotros!
    Envíanos tu versión de esta canción

Letra de Lonely
Quiero reirme, por fuera no estoy mal
un poco sexy por dentro simple
Voy a rendirme, hoy no puedo hacer mas
me siento feeling, me siento lonely
Me siento lonely, lonely, lonely
Me siento lonely, lonely, lonely
Me siento lonely, lonely, lonely
Me siento lonely, lonely, lonely
Busque la forma de no sentirme
tan vulnerable, tan desechable
Lonely, lonely... la la la la la la la la la la la la la [Bis]
Si no respondes algo esta mal
Si no respondes algo esta mal



© LaCuerda.net · aviso legal · privacidad · contacto